Artists by letter: A B C D E F G H I J K L M N O P Q R S T U V W X Y Z 0-9

 
Miel
Forma simplificada del intro.

E ----------------------------------------------
A ----------------------------------------------
D ----------------------------------------------
G -12----------12-------------------12--12------
B ---10-13-10----10-13-10------13-10------10-13-
e -----------12----------12--10-----------------

E -----------------------------------------------
A -----------------------------------------------
D -----------------------------------------------
G -12----------12---------------------12--12-----
B ---10-13-10----10-13-10-----------13-----10-13-
e -----------12----------12-13(H)-12-------------


Intro: Dm7   G   Cmaj7   Am7 X 2


Dm7       G              Cmaj7       Am7
? Miel y piel bronceada para enloquecer
Dm7      G         Cmaj7    Am7
? Dulce optimismo al amanecer
       Dm7        Fm          C
Que darías tú por verme otra vez

Dm7   G               Cmaj7        Am7
Millones de estrellas hoy me piden luz
Dm7    G         Cmaj7         Am7
En el día que sea solo existes tú
      Dm7         Fm         C
Que daría yo por verte otra vez


Coro
Dm7          G            Cmaj7     Am7
Miel eres calor eres sin fin
Dm7         G             Cmaj7     Am7
No tenemos culpa esto es así
         Dm7            G           Cmaj7
Nunca es cosa fácil tu voz me hace bien
         Am7        Dm7       Fm           C
Pero después que daríamos por vernos otra vez

Dm7   G          Cmaj7     Am7
? Arena plateada para olvidar
Dm7       G           Cmaj7      Am7
? Cuatro lunas llenas pueden ayudar
Dm7                  G              Cmaj7   Am7
Destellos rosas y colores para enamorar
Dm7                           Fm          C
? Pues aunque estés lejos te puedo respirar...


Coro

Dm7                   G
Nunca es cosa fácil amor
        Cmaj7       Am7
Tú eres miel en mi piel
       Dm7        Fm          C
Que daríamos por vernos otra vez?

       Dm7        Fm          C
Que daríamos por vernos otra vez?


Nota: se pueden usar los acordes que propongo o usar otras formas,
C para Cmaj7 y Am para Am7, se escucha mejor si se toca arpegiando
los acordes...
 
 
Valgur - Miel :: indexed at Ultimate Guitar.
Miel tabs @ 911Tabs
People who played Valgur - Miel also played these songs by Valgur:
Miel Chords, Fucsia Chords, Trebol Chords, De Dos Chords, De Dos, Fucsia

Quick tip, so you can enjoy Miel even more:

If you don't really know how to deal with "Absus4" chord and his equally confusing brothers, just put the mouse cursor over them and you will be shown a helpful chord diagram.

Show us your talent, perform Miel!

Here you can post a video or audio performance. Tell me more ...
Where can we find your performance? Tell me more ...
Your comment:
Please, log in to post your performance.