Artists by letter: A B C D E F G H I J K L M N O P Q R S T U V W X Y Z 0-9

 
Liar It Takes One To Know One Tab
Intro/Verse
Guitar 1:
e---------------------------------------------------------------------|
b---------------------------------------------------------------------|
g--5-X12--7-X4--9-X12--10-X4--5-X8--4-X8--2-X8--1-x4--2-x4------------|
d--7------9-----10-----12-----7-----5-----3-----2-----3---------------| x3
a---------------------------------------------------------------------|
e---------------------------------------------------------------------|

Guitar 2: (Play after guitar 1 has played that twice)
e--x-x-x-x-----------------------------x-x-x-x------------------------|
b--x-x-x-x-----------------------------x-x-x-x------------------------|
g--x-x-x-x-14--14--14--14--14--14--13--x-x-x-x------------------------|
d--x-x-x-x--x---x---x---x---x---x---x--x-x-x-x------------------------| x2
a--x-x-x-x-12--12--12--12--12--12--11--x-x-x-x------------------------|
e--x-x-x-x-----------------------------x-x-x-x------------------------|


Part before chorus (might not be right)
e---------------------------------------------------------------------|
b---------------------------------------------------------------------|
g--------------9-----7------------------------------------------------|
d--3-----5-----x-x4--x-x4--7------5-----3-----5-----7-----------------|
a--3-x6--5-x2--7-----5-----7-x12--5-x4--3-x8--5-x8--7-x16---(slide)---|
e--1-----3-----------------5------3-----1-----3-----5-----------------|

Chorus:
e --------------------------------------------------------------------|
b --------------------------------------------------------------------|
g --------------5--------7----- 99999999777777995555555555555555------|
d -7------5-----5-x-12---7-x4---xxxxxxxxxxxxxxxxxxxxxxxxxxxxxxxx------|  x2
a -7-x12--5-x4--3--------5------77777777555555773333333333333333------|
e -5------3-----------------------------------------------------------|

Part after chorus (played like guitar 2 from the verse)
e--x-x-x-x-----------------------------x-x-x-x------------------------|
b--x-x-x-x-----------------------------x-x-x-x------------------------|
g--x-x-x-x-----------------------------x-x-x-x------------------------|
d--x-x-x-x--7--7--7--7--7--7--7--------x-x-x-x------------------------|
a--x-x-x-x--7--7--7--7--7--7--7--------x-x-x-x------------------------|
e--x-x-x-x--5--5--5--5--5--5--5--------x-x-x-x------------------------|

 
 
Taking Back Sunday - Liar It Takes One To Know One Tab :: indexed at Ultimate Guitar.
Liar It Takes One To Know One tabs @ 911Tabs

About the artist behind Liar It Takes One To Know One Tab:

Taking Back Sunday is an alternative rock band from Amityville, New York, Long Island, New York. The current members are Adam Lazzara, Matt Fazzi, Eddie Reyes, Mark O'Connell and Matt Rubano. On October 4, 2007, it was announced that Fred Mascherino would be permanently leaving the band to work on his solo project, The Color Fred.

Indexed at Wikipedia.

Show us your talent, perform Liar It Takes One To Know One Tab!

Here you can post a video or audio performance. Tell me more ...
Where can we find your performance? Tell me more ...
Your comment:
Please, log in to post your performance.