Artists by letter: A B C D E F G H I J K L M N O P Q R S T U V W X Y Z 0-9

 
Look Around
Artist:Red Hot Chilli Peppers
Song;  Look Around
Album: I'm With You
Transcribed by: SolidusArmor

Tuning: Standard EADGBe


Key Gm                            
                                    Woo! 


     Gmin7                                            Gmin7    
                                                      
e|--10-10-10-10-10-10-10-10-10-10--10--13-13----------10-10-10-10-10-10-10-10-10-10--15-15-13-15\-|
B|--11-11-11-11-11-11-11-11-11-11--11-----------------11-11-11-11-11-11-11-11-11-11--15-15-13-15\-|
G|--10-10-10-10-10-10-10-10-10-10--10-----------------10-10-10-10-10-10-10-10-10-10---------------|x2
D|--12-12-12-12-12-12-12-12-12-12--12-----------------12-12-12-12-12-12-12-12-12-12---------------|
A|--10-10-10-10-10-10-10-10-10-10--10-----------------10-10-10-10-10-10-10-10-10-10---------------|
E|------------------------------------------------------------------------------------------------|



Stiff club, its my nature,
Custom love is the nomenclature.
Turn down mass confusion,
Hit the road because we just keep cruisin'.
Double my fun, double my vision,
Long hard look at my last decision.
Hustle here, hustle there,
Hustle me bitch and you best beware.


e|-13--15------|
B|-13--15------|
G|-------------|x4
D|-------------|
A|-------------|
E|-------------|

It's emotional and I told you so,
But you had to know so I told you.
Soft walk to horizon,
One big crash that no one dies in.
This for the folks in Fayetteville,
It'll come true if you say it will.




e|-----------------------------------------------------------------------------------------|
B|-------------------------------------13---15----15/13---10-11----------------------------|
G|--------------------------10---12~-----------------------------12--10-12-10-12br---------|
D|---------8~-----10--12~------------------------------------------------------------------|
A|-10~-12----------------------------------------------------------------------------------|
E|-----------------------------------------------------------------------------------------|



Look around, look around, look around
All around, all around, all around
Look around, look around, look around
All around, all around, all around


  Gmin7                                               Gmin7
     
e|--10-10-10-10-10-10-10-10-10-10--10--13-13----------10-10-10-10-10-10-10-10-10-10--15-15-13-15\-|
B|--11-11-11-11-11-11-11-11-11-11--11-----------------11-11-11-11-11-11-11-11-11-11--15-15-13-15\-|
G|--10-10-10-10-10-10-10-10-10-10--10-----------------10-10-10-10-10-10-10-10-10-10---------------|x2
D|--12-12-12-12-12-12-12-12-12-12--12-----------------12-12-12-12-12-12-12-12-12-12---------------|
A|--10-10-10-10-10-10-10-10-10-10--10-----------------10-10-10-10-10-10-10-10-10-10---------------|
E|------------------------------------------------------------------------------------------------|



e|--------------------------------------------------------------|
B|--15b---13-13--13h15---13h15p13\\\\\\\\\\---13b--13b--13br----|
G|--------------------------------------------------------------|
D|--------------------------------------------------------------|
A|--------------------------------------------------------------|
E|--------------------------------------------------------------|



It's emotional and I told you so,
But you had to know so I told you.
Please don't look right through me,
Hurts my heart when you do that to me.
Street lights out my window,
City May breeze gonna stroke my skin though.
Dropped a lot of words on an old brick wall,
Rob a lot of banks got a pedigree scrawl.
Put my peg into your square,
Run around like we just don't care.


e|-13--15------|
B|-13--15------|
G|-------------|x2
D|-------------|
A|-------------|
E|-------------|



Look around, look around, look around
All around, all around, all around
Look around, look around, look around
All around, oh yeah ah

     Gmin7                                            Gmin7                                               
     
e|--10-10-10-10-10-10-10-10-10-10--10--13-13----------10-10-10-10-10-10-10-10-10-10--15-15-13-15\-|
B|--11-11-11-11-11-11-11-11-11-11--11-----------------11-11-11-11-11-11-11-11-11-11--15-15-13-15\-|
G|--10-10-10-10-10-10-10-10-10-10--10-----------------10-10-10-10-10-10-10-10-10-10---------------|x2
D|--12-12-12-12-12-12-12-12-12-12--12-----------------12-12-12-12-12-12-12-12-12-12---------------|
A|--10-10-10-10-10-10-10-10-10-10--10-----------------10-10-10-10-10-10-10-10-10-10---------------|
E|------------------------------------------------------------------------------------------------|

              
                                        Woo! 
 
    Emin 

e|--7------------7----------------7-7-7xx7-7-7-7xx7-7-7-7--7-7--7-7--7-7-7---|
B|--8------------8----------------8-8-8xx8-8-8-8xx8-8-8-8--8-8--8-8--8-8-8---|
G|--9-let ring---9-let ring-------9-9-9xx9-9-9-9xx9-9-9-9--9-9--9-9--9-9-9---|
D|---------------------------------------------------------------------------|
A|---------------------------------------------------------------------------|
E|---------------------------------------------------------------------------|



Move it ah gotta get ya, wanna get you
Move it ah gotta get ya, gonna get you

             solo  Will come later

e|------------------------------------------------------------------------------------------------|
B|------------------------------------------------------------------------------------------------|
G|------------------------------------------------------------------------------------------------|
D|------------------------------------------------------------------------------------------------|
A|------------------------------------------------------------------------------------------------|
E|------------------------------------------------------------------------------------------------|



Look around, look around, look around
All around, all around, all around
Look around, look around, look around
All around, oh yeah ah

     Gmin7                                            Gmin7    
                                                      
e|--10-10-10-10-10-10-10-10-10-10--10--13-13----------10-10-10-10-10-10-10-10-10-10--15-15-13-15\-|
B|--11-11-11-11-11-11-11-11-11-11--11-----------------11-11-11-11-11-11-11-11-11-11--15-15-13-15\-|
G|--10-10-10-10-10-10-10-10-10-10--10-----------------10-10-10-10-10-10-10-10-10-10---------------|x2
D|--12-12-12-12-12-12-12-12-12-12--12-----------------12-12-12-12-12-12-12-12-12-12---------------|
A|--10-10-10-10-10-10-10-10-10-10--10-----------------10-10-10-10-10-10-10-10-10-10---------------|
E|------------------------------------------------------------------------------------------------|



God I'm feeling small
And I'm hitting a wall
Gonna leave it all around


   Gmin7                                            Gmin7    
                                                      
e|--10-10-10-10-10-10-10-10-10-10--10--13-13----------10-10-10-10-10-10-10-10-10-10--15-15-13-15\-|
B|--11-11-11-11-11-11-11-11-11-11--11-----------------11-11-11-11-11-11-11-11-11-11--15-15-13-15\-|
G|--10-10-10-10-10-10-10-10-10-10--10-----------------10-10-10-10-10-10-10-10-10-10---------------|x2
D|--12-12-12-12-12-12-12-12-12-12--12-----------------12-12-12-12-12-12-12-12-12-12---------------|
A|--10-10-10-10-10-10-10-10-10-10--10-----------------10-10-10-10-10-10-10-10-10-10---------------|
E|------------------------------------------------------------------------------------------------|
 
 
Red Hot Chili Peppers - Look Around :: indexed at Ultimate Guitar.
Look Around tabs @ 911Tabs

About the artist behind Look Around:

The Red Hot Chili Peppers are a Grammy-award winning American alternative rock band formed in Los Angeles, California, in 1983. For most of its career, the band has consisted of vocalist Anthony Kiedis, guitarist John Frusciante, bassist Michael "Flea" Balzary, and drummer Chad Smith. The band's varied musical style has fused traditional rock and funk with various elements of heavy metal, punk rock and psychedelic rock.

In addition to Kiedis and Flea, the group originally featured guitarist Hillel Slovak and drummer Jack Irons. However, Slovak died of a heroin overdose in 1988, resulting in Irons resigning.[1] Irons was replaced briefly by D. H. Peligro, former Dead Kennedys drummer, before the band found a permanent replacement in Chad Smith, while Slovak was replaced by up-and-coming guitarist Frusciante. This lineup recorded the band's fourth and fifth albums, Mother's Milk (1989) and Blood Sugar Sex Magik (1991).

Blood Sugar Sex Magik was a critical success and sold over twelve million copies. However, Frusciante grew increasingly uncomfortable with the band's success and left the band abruptly in 1992. Kiedis, Flea, and Smith employed Dave Navarro of Jane's Addiction for their subsequent album, One Hot Minute (1995). It failed, however, to match the critical acclaim of Blood Sugar Sex Magik and sold fewer than half the copies of its predecessor. Shortly afterwards, Navarro was fired from the band due to creative differences.

Frusciante, while absent from the band, developed a severe drug addiction. In 1998, he completed rehabilitation and, at Flea's request, rejoined the band. The reunited foursome returned to the studio to record Californication (1999), which went on to sell fifteen million units worldwide, becoming their most successful album to date. It was followed three years later with By the Way (2002), which continued their success. In 2006, the group released the double album Stadium Arcadium. The band has won six Grammy Awards.

Indexed at Wikipedia.

Show us your talent, perform Look Around!

Here you can post a video or audio performance. Tell me more ...
Where can we find your performance? Tell me more ...
Your comment:
Please, log in to post your performance.