Artists by letter: A B C D E F G H I J K L M N O P Q R S T U V W X Y Z 0-9

 
Singular
intro:
e|--5-----5-----4-----4------|-
B|----8-----8-----7-----7----|-
G|------6-----6-----5-----5--|-
D|---------------------------|-
A|---------------------------|-
E|---------------------------|-

A5* x2

A5* x3                             A5*
  Es una historia singular         D|------------------
te ví pasar y ahora                A|-7-7-9-7-10-7-9-7-
no te puedo ver                    E|-5-5-5-5-5--5-5-5-
E5* x3
  Y está de más
todo lo que pueda pasar            E5*
yo ya lo sé                        D|------------------
A5* x2                             A|-2-2-4-2-5-2-4-2--
   Que nada lo puede cambiar       E|-0-0-0-0-0-0-0-0--

A5*
   El tiempo gira en la pared
Por el espejo del placar
te reflejás
E5*
   Cuando te vas cuando volvés
   cuanto tenés cuanto querés
A5*
    Y nada lo puede parar


A5*
   Y en la oscura habitación
caí en la cuenta de que
ya no somos dos
E5*
   Pisé un pedazo de papel
era el recibo de el que hoy
A5*
   Compró tu corazón
Pagó tu ropa interior

Solo: E5* x4
      A5* x1

e|--5-----5-----4-----4------|-
B|----8-----8-----7-----7----|-
G|------6-----6-----5-----5--|-
D|---------------------------|-
A|---------------------------|-
E|---------------------------|-


Si ya no hay excitación
no hay misterio y emoción
para los dos
Y el reloj que hasta las tres
marco las horas que después
Ya no regresarán


Ahora el catre se oxidó
por la gotera del colchón
que al lado mío se quedó
Eso tal vez quiere decir
que de los dos sería yo


solo: A5* x8

F#5  G5  G#5 A5
Se - rí - a  yo
A5
El que se tiene que ir?

F#5  G5  G#5 A5
Se - rí - a  yo
A5
El que se tiene que ir?

F#5  G5  G#5 A5
Se - rí - a  yo
A5
El que se tiene que ir?

F#5  G5  G#5 A5
Se - rí - a  yo
A5
El que se tiene que ir?

TERMINA CON:

e|----------------------5/7/5--3-|-
B|--------9-10-11-12----5------3-|-
G|--6-7-8-8-9--10-11----6------4-|-
D|--6-7-8-6-7--8--9--------------|-
A|--4-5-6------------------------|-
E|-------------------------------|-

--------------------------------------------------------------------
Este es un tema fácil, pero difícil de transcribir.. espero q con esta
guía lo puedan tocar en un fogón lo mas parecido posible.. Saludos

BAHIA BLANCA

                                  ____________________Aníbal#87 RnR
 
 
Perro Ciego - Singular :: indexed at Ultimate Guitar.
Singular tabs @ 911Tabs
People who played Perro Ciego - Singular also played these songs by Perro Ciego:
Dormilon X8 Chords, Singular Tab, Dormilon X8 Chords, Dos Jardines Chords, Paracaidas Chords, Letras Rojas Chords

Quick tip, so you can enjoy Singular even more:

Try out the AutoScroller option ... It scrolls the page for you, so you can totally focus on nailing that solo. You can choose among different speeds using your mouse or your keyboard (keys 0, 1, 2 and 3).

Show us your talent, perform Singular!

Here you can post a video or audio performance. Tell me more ...
Where can we find your performance? Tell me more ...
Your comment:
Please, log in to post your performance.