Artists by letter: A B C D E F G H I J K L M N O P Q R S T U V W X Y Z 0-9

 
Poker Y Ruletas
INTRO: LA

e|--5---5-55-5---55-5---8-8-5-8-8-8-8-8-5-------------|
B|--5h7-5-55-5h7-55-5h7-8-8-5-8-8-8-8-8-5-------------|
G|----------------------------------------7e7-5---5---|
D|----------------------------------------------7-----|
A|----------------------------------------------------|
E|----------------------------------------------------|

-----------------55---55...55---5---------------------|
-----------------55---55...55---5------5-5-5-5--------|
--7e7-5---5---------7---------7---7-5-7e7e7e7e7br~6-5-|
--------7---5h7---------------------------------------|
------------------------------------------------------|
------------------------------------------------------|

------------------|
------------------|
---5-5-7-5--------|
-7---------7-5----|
---------------7~-|
------------------|


A5
Todo lo que quiero es un mustang 66,

D5                                            A5
Una chica, una guitarra y mis botas color café,

E5            D5                              A5
Y veras nena, yo te hare volar por primera vez.

A5
Jugar poker y ruleta los sabados tambien,

D5                                   A5
Tener mi limusine y sirvientes a mil,

E5           D5                               A5
Y veras nena, yo te hare volar por primera vez.


A5
Go, go, go, por primera vez,

D5                         A5
Go, go, go, por primera vez,

E5            D5                              A5
Y veras nena, yo te hare volar por primera vez.


Jugar poker y ruletas...


BUENO... aca les dejo el tab del intro nada mas
despues subo el resto porq es muy largo jaja
 
 
Perro Ciego - Poker Y Ruletas :: indexed at Ultimate Guitar.
Poker Y Ruletas tabs @ 911Tabs
People who played Perro Ciego - Poker Y Ruletas also played these songs by Perro Ciego:
Dormilon X8 Chords, Singular Tab, Dormilon X8 Chords, Dos Jardines Chords, Paracaidas Chords, Letras Rojas Chords

Quick tip, so you can enjoy Poker Y Ruletas even more:

YourChords.com Guitar Chords and Tabs Archive is currently indexing over 240'000 songs from 21'000+ different artists. And new chords just keep on coming in, so you will surely never run out of them.

Show us your talent, perform Poker Y Ruletas!

Here you can post a video or audio performance. Tell me more ...
Where can we find your performance? Tell me more ...
Your comment:
Please, log in to post your performance.