Artists by letter: A B C D E F G H I J K L M N O P Q R S T U V W X Y Z 0-9

 
Letras Rojas
Hola esta es una cancion de una banda salteƱa que esta
muy buena y el tema es muy facil de tocar...

Intro:
e|-------------------------------------|
B|----------------------------3--------|
G|-------------------------2h4-2-0-----| x2
D|---4-4-2-------------------------4-4-|
A|---2-2-0-0--2-2-2-2-2-2--------------|
E|---------2--0-0-0-0-0-0--------------|

e|--------------------------3--5-------|
B|--------------------------3--5-------|
G|--------------------------4--6-------|(RIFF 1)
D|---4-4-2------------------5--7-------|
A|---2-2-0-0--2-2-2-2-2-2---5--7-------|
E|---------2--0-0-0-0-0-0---3--5-------|

Casi todo el tema va con este riff 1, despues cambia
los acordes en el coro.

1. (RIFF 1)
   Bajo por el viejo lugar
   (RIFF 1)
   al que siempre llego mal
   (RIFF 1)
   hasta es un lugar jodido
   (RIFF 1)
   no me va fallar, esta listo

1. a pesar del humo y del acohol
   y del tiempo que se fue sin reloj
   ya no puedo hablar
   sin quemar mi voz

Coro:
2. G#m                              C#m
   Puedo volver a estare bien pero sin reloj
   G#m                              D           G#m
   puedo volver a estar bien letras rojas piden dos

1. El minuto en que volcamos
   se gasto las fichas muy temprano
   el tiempo paso
   pero el pulso siguio

1. A pesar del humo y del alcohol
   y del tiempo que se........

2. Dejaste todo y no me puedo quejar
   ahora te vas no quiero verte llorar
   Puedo volver a estar bien.....

2. Letras rojas, Letras rojas.....

((((_'AGUENTE LA RESACA'_))))
 
 
Perro Ciego - Letras Rojas :: indexed at Ultimate Guitar.
Letras Rojas tabs @ 911Tabs
People who played Perro Ciego - Letras Rojas also played these songs by Perro Ciego:
Dormilon X8 Chords, Singular Tab, Dormilon X8 Chords, Dos Jardines Chords, Paracaidas Chords, Letras Rojas Chords

Quick tip, so you can enjoy Letras Rojas even more:

YourChords.com Guitar Chords and Tabs Archive is currently indexing over 240'000 songs from 21'000+ different artists. And new chords just keep on coming in, so you will surely never run out of them.

Show us your talent, perform Letras Rojas!

Here you can post a video or audio performance. Tell me more ...
Where can we find your performance? Tell me more ...
Your comment:
Please, log in to post your performance.