Artists by letter: A B C D E F G H I J K L M N O P Q R S T U V W X Y Z 0-9

 
Loves A Bitch
-----------------------------------------------------------------------------
              Loves A Bitch (Metal Health 1983) - Quiet Riot
-----------------------------------------------------------------------------
Tabbed by:theWhelan1991
Email:

Tuning: Standard

Intro/Verse

e|------0-------0------------0--------0-------------------------------------|
B|--------0-------0------------0--------0-----------------------------------|
G|------------------0-------------------------------------------------------|
D|--------------------0-----------------------------------------------------|
A|----------------------0---------------------------------------------------|
E|---0-------3------------2---------1---------------------------------------|

Prechorus

e|-----------3--------3-------------------3---------------------------------|
B|---------3---3---3----3------------1-------1----1-------------------------|
G|------2--------2--------2-------------0-------0---------------------------|
D|----0----------------------------2----------------------------------------|
A|-------------------------------3------------------------------------------|
E|--------------------------------------------------------------------------|

e|--------------------------------------------------------------------------|
B|--------------------------------------------------------------------------|
G|--------------------------------------------------------------------------|
D|----5-5-5-5-5-------------------------------------------------------------|
A|----3-3-3-3-3-------------------------------------------------------------|
E|--------------------------------------------------------------------------|

Chorus

e|--------------------------------------------------------------------------|
B|--------------------------------------------------------------------------|
G|--------------------------------------------------------------------------|
D|--------------------------------------------------------------------------|
A|----2----2--2-----5---7------5--4--2----2--2----7---5----5--4-------------|
E|----0----0--0-----3---5------3--2--0----0--0----5---3----3--2-------------|

e|--------------------------------------------------------------------------|
B|--------------------------------------------------------------------------|
G|--------------------------2----4--5b6r5--4--------------------------------|
D|--------------------------------------------------------------------------|
A|---0-00-0-00-0-00-0-------------------------------------------------------|
E|--------------------------------------------------------------------------|

Solo

Work in Progress

************************************

| /   slide up
| \   slide down
| h   hammer-on
| p   pull-off
| ~   vibrato
| +   harmonic
| x   Mute note
| b   Bend
| pb  Pre-bend
| br  Bend release
| pbr Pre-bend release
| brb Bend release bend

************************************
 
 
Quiet Riot - Loves A Bitch :: indexed at Ultimate Guitar.
Loves A Bitch tabs @ 911Tabs

Quick tip, so you can enjoy Loves A Bitch even more:

If you don't really know how to deal with "Absus4" chord and his equally confusing brothers, just put the mouse cursor over them and you will be shown a helpful chord diagram.

Show us your talent, perform Loves A Bitch!

Here you can post a video or audio performance. Tell me more ...
Where can we find your performance? Tell me more ...
Your comment:
Please, log in to post your performance.