Artists by letter: A B C D E F G H I J K L M N O P Q R S T U V W X Y Z 0-9

 
Killer Girls
[email protected]
Quiet Riot              
Quiet Riot 2
Killer girls 
1978

the chicks in the town been 
         3x                      runnin' around          their on the loose  
E|-----------------|---------|------------------------------|-------------|
B|-----------------|---------|------------------------------|-------------|
G|-----------------|---------|------------------------------|-------------|
D|--------7---5----|---------|------------------------------|-7---5--2----|
A|--5-----5---3----|--5-5-5--|-3-3-3-3-3-3-3----------------|-5---3--0----|
E|--3--------------|--3-0-3--|---------------5-5-5-5-5-5-5--|-------------|
                      Pm|----------------------------|

Legs are spread for freedom for bread  their on the loose
E|---------|------------------------------|-------------|---------|
B|---------|------------------------------|-------------|---------|
G|---------|------------------------------|-------------|---------|
D|---------|------------------------------|-7---5--2----|---------|
A|--5-5-5--|-3-3-3-3-3-3-3----------------|-5---3--0----|--5-5-5--|
E|--3-0-3--|---------------5-5-5-5-5-5-5--|-------------|--3-0-3--|
        Pm|----------------------------|

Can't get enough to satisfy their lust on the loose                                    2x
E|------------------------------|-------------|---------|-----------------------|
B|------------------------------|-------------|---------|-----------------------|
G|------------------------------|-------------|---------|-----------------------|
D|------------------------------|-7---5--2----|---------|-7---7---7-7-7-7-7-7---|
A|-3-3-3-3-3-3-3----------------|-5---3--0----|--5-5-5--|-5---5---5-5-5-5-5-5---|
E|---------------5-5-5-5-5-5-5--|-------------|--3-0-3--|-----------------------|
Pm|----------------------------|
           I think you play the chores again and play verse 2 again
E|------------------|-----------------------------------------|
B|------------------|-----------------------------------------|
G|------------------|-----------------------------------------|
D|--5---5-----------|-5---5---5---4---3-----------------------|
A|--3---7----5---5--|-3---3---3---2---1-----------------------|
E|-----------3---3--|-----------------------------------------|
 
 
Quiet Riot - Killer Girls :: indexed at Ultimate Guitar.
Killer Girls tabs @ 911Tabs

Quick tip, so you can enjoy Killer Girls even more:

You might want to transpose the song if it is too high or too low for you to sing. Just click the desired option while playing a song and all the chords will automatically be transponded into a new key.

Show us your talent, perform Killer Girls!

Here you can post a video or audio performance. Tell me more ...
Where can we find your performance? Tell me more ...
Your comment:
Please, log in to post your performance.