Artists by letter: A B C D E F G H I J K L M N O P Q R S T U V W X Y Z 0-9

 
Cum On Feel The Noize
Transcribed by www.mikesguitarsite.co.uk 
Gtr I, II (E A D G B E) - 'Carlos Cavaso - Rhythm w/dist'
Gtr III (E A D G B E) - 'Carlos Cavaso - Lead w/dist'

Intro - Drums
  Q=146
 4/4
  Gtrs I, II
  Wx7          Q  Q   H       Wx2
|------------|--------------|--------||
|------------|--------------|--------||
|------------|--------------|--------||
|------------|--------------|--------||
|------------|--------------|--------||
|------------|----7s=19\----|--------||

Verses
    PM------------------------------------------------------------------|
    E E E E E E E E   E E E E E E E E   E E E E E E E E   E E E E E E E E
||------------------|-----------------|-----------------|------------------|
||o-----------------|-----------------|-----------------|------------------|
||------------------|-4-4-4-4-4-4-4-4-|-----------------|------------------|
||--5-5-5-5-5-5-5-5-|-4-4-4-4-4-4-4-4-|-2-2-2-2-2-2-2-2-|-2-2-2-2-2-2-2-2--|
||o-5-5-5-5-5-5-5-5-|-2-2-2-2-2-2-2-2-|-2-2-2-2-2-2-2-2-|-2-2-2-2-2-2-2-2--|
||--3-3-3-3-3-3-3-3-|-----------------|-0-0-0-0-0-0-0-0-|-0-0-0-0-0-0-0-0--|
 |-Rhy Fig 1

H    Q.   E   +W           H    Q.   E   +W
|-------------|------------|-------------|--------||
|-----------3-|-(3)--------|-----------3-|-(3)----||
|-2----0----2-|-(2)--------|-2----0----2-|-(2)----||
|-2----0----0-|-(0)--------|-2----0----0-|-(0)----||
|-0-----------|------------|-0-----------|--------||
|------3------|------------|------3------|--------||
                                    end Rhy Fig 1-|

Rhy Fig 1

PM------------------------------|
  E E E E E E E E   E E E E E E E E
|-----------------|-----------------||
|-----------------|-----------------||
|-9-9-9-9-9-9-9-9-|-7-7-7-7-7-7-7-7-||
|-9-9-9-9-9-9-9-9-|-7-7-7-7-7-7-7-7-||
|-7-7-7-7-7-7-7-7-|-5-5-5-5-5-5-5-5-||
|-----------------|-----------------||
|-Rhy Fig 1A         end Rhy Fig 1A-|

Chorus
  $
  H    Q.   E   +W           H    Q.   E   +W
|-------------|------------|-------------|--------|
|------3------|------------|------3------|--------|
|-0----2------|------------|-0----2------|--------|
|-0----0----2-|-(2)--------|-0----0----2-|-(2)----|
|-----------2-|-(2)--------|-----------2-|-(2)----|
|-3----2----0-|-(0)--------|-3----2----0-|-(0)----|
|-Rhy Fig 2

H    Q.   E   +W           H    Q.   E   +W
|-------------|------------|-------------|--------|
|-----------3-|-(3)--------|-----------3-|-(3)----|
|-2----0----2-|-(2)--------|-2----0----2-|-(2)----|
|-2----0----0-|-(0)--------|-2----0----0-|-(0)----|
|-0-----------|------------|-0-----------|--------|
|------3------|------------|------3------|--------|

H    Q.   E   +W           H    Q.   E   +W
|-------------|------------|-------------|--------|
|------3------|------------|------3------|--------|
|-0----2------|------------|-0----2------|--------|
|-0----0----2-|-(2)--------|-0----0----2-|-(2)----|
|-----------2-|-(2)--------|-----------2-|-(2)----|
|-3----2----0-|-(0)--------|-3----2----0-|-(0)----|

1.
  E E E E E E E E   E E E E E E E E   E E E E E E E E   E E E E E E E E
|-----------------|-----------------|-----------------|------------------||
|-----------------|-----------------|-3-3-3-3-3-3-3-3-|-3-3-3-3-3-3-3-3-o||
|-5-5-5-5-4-4-4-4-|-2-2-2-2-0-0-0-0-|-2-2-2-2-2-2-2-2-|-2-2-2-2-2-2-2-2--||
|-5-5-5-5-4-4-4-4-|-2-2-2-2-0-0-0-0-|-0-0-0-0-0-0-0-0-|-0-0-0-0-0-0-0-0--||
|-3-3-3-3-2-2-2-2-|-0-0-0-0---------|-----------------|-----------------o||
|-----------------|---------3-3-3-3-|-----------------|------------------||
                                                           end Rhy Fig 2-|

2.,D.S.
                           To Coda
  E E E E E E E E   E E E E E E E E
|-----------------|-----------------||
|-3-3-3-3-3-3-3-3-|-3-3-3-3-3-3-3-3-||
|-2-2-2-2-2-2-2-2-|-2-2-2-2-2-2-2-2-||
|-0-0-0-0-0-0-0-0-|-0-0-0-0-0-0-0-0-||
|-----------------|-----------------||
|-----------------|-----------------||

Interlude
  Gtr III
  W              W           W              Q   H.
|-------------|------------|-------------|------------|
|-------------|------------|-------------|------------|
|-------------|------------|-------------|------------|
|-------------|------------|-------------|------------|
|-------------|------------|-------------|------7/----|
|-------------|------------|-------------|------7/----|
|
| Gtrs I, II
| H    Q.   E   +W           H    Q.   E   +W
|-------------|------------|-------------|------------|
|------3------|------------|------3------|------------|
|-0----2------|------------|-0----2------|------------|
|-0----0----2-|-(2)--------|-0----0----2-|-(2)--------|
|-----------2-|-(2)--------|-----------2-|-(2)--------|
|-3----2----0-|-(0)--------|-3----2----0-|-(0)--------|

w/Rhy Fig 2 (last 4 bars only)
   PM------------------|
   S  S  S  S  S  S  S  S  S  S  S  S  S  S  S  S
|-------------------------------------------------|
|-------------------------------------------------|
|----------------------------------12-14-12-------|
|----------------------12-14-12-14----------14-12-|
|----------12-14-12-14----------------------------|
|-15-12-15----------------------------------------|

S  S  S  S  S  S  S  S  S  S  S  S  S  S  S  S
|----------------------------------12-15-12----12-|
|----------------------12-15-12-15----------14----|
|----------12-14-12-14----------------------------|
|-14-12-14----------------------------------------|
|-------------------------------------------------|
|-------------------------------------------------|

|--3--|
   E      +Q      E  E  E  S  S  S  E    E  a      +E   +E   E  +Q      E  E
|-15b17==(15)r---15-14-15-14h15p14----|-14-----------------------------------||
|----------------------------------17-|----17b19==(17)r(17)-15-(15)\---12-13-||
|-------------------------------------|--------------------------------------||
|-------------------------------------|--------------------------------------||
|-------------------------------------|--------------------------------------||
|-------------------------------------|--------------------------------------||

Guitar Solo
w/Rhy Fig 2
                          ~~~~~~~~~
   E  E  E  E  +E   E  E  E    +E   E  E  E  E  E  E  E
|---------------------------|---------------------------|
|-15-13-12-13-(13)-12----12-|-(12)----------------12-13-|
|---------------------14----|------14-12-11-12-14-------|
|---------------------------|---------------------------|
|---------------------------|---------------------------|
|---------------------------|---------------------------|



~~~
   E  E  E  E  +E   E  E  E    E   E  E      +E    Q.    E
|---------------------------|------------------------------|
|-15-13-12-13-(13)-12----12-|-12------------------------12-|
|---------------------14----|-----14-12b15==(12)r-12-------|
|---------------------------|------------------------------|
|---------------------------|------------------------------|
|---------------------------|------------------------------|

~~~
   a      +Q     a      +Q     a      +E   +E   E  E    +E   E  E  E  Q.    E
|-15b17==(15)r--15b17==(15)r--15b17==(15)r(15)-14-15-|-(15)-17-15-14----------|
|----------------------------------------------------|---------------15----12-|
|----------------------------------------------------|------------------------|
|----------------------------------------------------|------------------------|
|----------------------------------------------------|------------------------|
|----------------------------------------------------|------------------------|

~~~
   a      +Q     a      +Q     a      +E   +E   E  E    +E   E  E  E  Q.    E
|-15b17==(15)r--15b17==(15)r--15b17==(15)r(15)-14-15-|-(15)-17-15-14----------|
|----------------------------------------------------|---------------15----15-|
|----------------------------------------------------|------------------------|
|----------------------------------------------------|------------------------|
|----------------------------------------------------|------------------------|
|----------------------------------------------------|------------------------|

~~~~~~~~~~                               ~~~
   a      +Q     a      +Q    +Q.     a      +E     +E   E  E  E  Q.    E
|-17b19==(17)r--17b19==(17)--(17)r---17b19==(17)r|=(17)-15-17-19-17----15-|
|------------------------------------------------|------------------------|
|------------------------------------------------|------------------------|
|------------------------------------------------|------------------------|
|------------------------------------------------|------------------------|
|------------------------------------------------|------------------------|

S  S  S  S  S  S  S  S  S   S  S  S  S  S  S  S
|-19-15-15-15-17-15-15-15-19--15-15-15-17-15-14-15-|
|--------------------------------------------------|
|--------------------------------------------------|
|--------------------------------------------------|
|--------------------------------------------------|
|--------------------------------------------------|

S   S  S  S  S  S  S  S  S  S      +E   +E   +E
|-17--14-15-14-12h15p12----12-----------------------|
|-----------------------14----15b17==(15)-(15)r(15)-|
|---------------------------------------------------|
|---------------------------------------------------|
|---------------------------------------------------|
|---------------------------------------------------|

PM------------------|
   S  S  S  S  S  S  S  S  S  S  S  S  S  S  S  S
|-------------------------------------------------|
|-------------------------------------------------|
|----------------------------------12-14-12-------|
|----------------------12-14-12-14----------14-12-|
|----------12-14-12-14----------------------------|
|-15-12-15----------------------------------------|

S  S  S  S  S  S  S  S  S  S  S  S  S  S  S  S
|----------------------------------12-15-12----12-|
|----------------------12-15-12-15----------14----|
|----------12-14-12-14----------------------------|
|-14-12-14----------------------------------------|
|-------------------------------------------------|
|-------------------------------------------------|

E      +Q     +S    S  S  S  S  S  S  S  S  S
|-15b17==(15)---(15)r-15-14h15p14p12-14h15p14p12-|
|------------------------------------------------|
|------------------------------------------------|
|------------------------------------------------|
|------------------------------------------------|
|------------------------------------------------|

~~~~~~~~
   S  S  S  S  E  S      +S   +H
|-12-14-15-17-20-20b22==(20)-(20)-------||
|---------------------------------------||
|---------------------------------------||
|---------------------------------------||
|---------------------------------------||
|---------------------------------------||

Verse
w/Rhy Fig 1 x2
    ~~~~~
   +W                   W                 W                 W
|-(20)r---------------|-----------------|-----------------|-----------------|
|---------------------|-----------------|-----------------|-----------------|
|---------------------|-----------------|-----------------|-----------------|
|---------------------|-----------------|-----------------|-----------------|
|---------------------|-----------------|-----------------|-----------------|
|---------------------|-----------------|-----------------|-----------------|

|-3-|
  W              Q    E E E E S S S E
|-------------|-----------------------|
|-------------|-----------------------|
|-------------|---------4-5-7-5h7p5p4-|
|-------------|------/7---------------|
|-------------|-----------------------|
|-------------|-----------------------|

~
  W             +Q      E  E  E  E  E  E
|-------------|----------------------------|
|-------------|-----------12-13-15-13-12---|
|-5-----------|-(5)\--/14------------------|
|-------------|----------------------------|
|-------------|----------------------------|
|-------------|----------------------------|

~~~~~~~~~~~~~~~~~~~~~~~
   W                  +W                  W                 W
|------------------|--------------------|-----------------|-----------------|
|------------------|--------------------|-----------------|-----------------|
|-12---------------|-(12)---------------|-----------------|-----------------|
|------------------|--------------------|-----------------|-----------------|
|------------------|--------------------|-----------------|-----------------|
|------------------|--------------------|-----------------|-----------------|

|-3-|
  W              Q    E E E E S S S E
|-------------|-----------------------|
|-------------|-----------------------|
|-------------|---------4-5-7-5h7p5p4-|
|-------------|------/7---------------|
|-------------|-----------------------|
|-------------|-----------------------|

~
  W             +Q      E  E  E  E  E  E
|-------------|----------------------------|
|-------------|-----------12-13-15-13-12---|
|-5-----------|-(5)\--/14------------------|
|-------------|----------------------------|
|-------------|----------------------------|
|-------------|----------------------------|

w/Rhy Fig 1A
   ~~~~~~~~~~~~~~~~~~~~~
   W                  W
|------------------|------------------||
|------------------|------------------||
|-12---------------|-11---------------||
|------------------|------------------||
|------------------|------------------||
|------------------|------------------||

Chorus
  Gtrs I, II
  Wx4             H    Q.   E   +H      H        W
|------------||---------------|---------------||------|
|------------||o--------------|--------------o||------|
|------------||---------------|---------------||------|
|------------||--10----9----7-|-(7)\----------||------|
|------------||o--------------|--------------o||------|
|------------||---------------|---------------||------|

Q  Q   H       W          Q  Q   H
|--------------|----------|--------------|
|--------------|----------|--------------|
|--------------|----------|--------------|
|--------------|----------|--------------|
|----5s=21\----|----------|----5s=21\----|
|--------------|----------|--------------|

Rhy Fig 2 (last 4 bars only)  -> D.S. al Coda

Outro - Guitar Solo
w/Rhy Fig 2
  &
  Gtr III
  W              E    E  E  E  E  E  E  E
|-------------|---------------------------|
|-------------|-----/11-13-13-15-13-12----|
|-------------|------------------------14-|
|-------------|---------------------------|
|-------------|---------------------------|
|-------------|---------------------------|

~~
                                |--3--|
   W              E    E  E  E  Q  Q  Q
|--------------|-------------------------|
|--------------|---------------12-13-15--|
|-12-----------|---------12-14-----------|
|--------------|-----/14-----------------|
|--------------|-------------------------|
|--------------|-------------------------|

~~~~~                    ~~~~~~~~~~
   a      +H.          E      +S   +S     +W
|--------------------------------------|-------------|
|-15b17==(15)r--------15b17==(15)r(15)-|-(15)--------|
|--------------------------------------|-------------|
|--------------------------------------|-------------|
|--------------------------------------|-------------|
|--------------------------------------|-------------|

~~~~~                    ~~~~~~~~~~
   a      +H.          E      +S   +S     +H.       +Q
|--------------------------------------|------------------|
|-15b17==(15)r--------15b17==(15)r(15)-|-(15)------(15)\--|
|--------------------------------------|------------------|
|--------------------------------------|------------------|
|--------------------------------------|------------------|
|--------------------------------------|------------------|

a      +Q     a      +Q    +Q.     a      +E     +E   E  E  E  S  S  S  S  E  E
|-17b19==(17)r--17b19==(17)--(17)r---17b19==(17)r|=(17)-15-17-15-14h17p14----14-15-|
|------------------------------------------------|------------------------17-------|
|------------------------------------------------|---------------------------------|
|------------------------------------------------|---------------------------------|
|------------------------------------------------|---------------------------------|
|------------------------------------------------|---------------------------------|

S  S  S  S  S  S  S  S  S  S  S  S  S  S  E        +E   +S   S  Q   +Q    Q
|-17p14h15p14-17p14h15p14-17p14h15p14----14--------|------------------------------|
|-------------------------------------17----17b19==|=(17)r(17)-15-17--(17)\-------|
|--------------------------------------------------|------------------------------|
|--------------------------------------------------|------------------------------|
|--------------------------------------------------|------------------------------|
|--------------------------------------------------|------------------------------|

~~~~~~~~
                                                                            |--3--|
   E  E  E  S      +S    E.    S  S  S  S  S    E  E      +E   +E   +E   E  S  S  S  S  S
|--------------------------------------------|--------------------------------------------|
|-------12h14b16==(14)r-12-------12h13p12----|-12-15b17==(15)r(15)-(15)-15-12h15p12----12-|
|-----------------------------------------14-|--------------------------------------14----|
|-12-14-----------------------14-------------|--------------------------------------------|
|--------------------------------------------|--------------------------------------------|
|--------------------------------------------|--------------------------------------------|

~~                                            ~~~~~~~
   a      +E   +S   S  Q    S  S  E  S  S  S  S    E  S  S  S  S  S  S  +Q     +Q
|-----------------------------------------------|-------------------------------------||
|-----------------------------------------------|-------------------------------------||
|-14b16==(14)r(14)p12-14---14-12-11-12-11----11-|-------------------------------------||
|-----------------------------------------14----|-14-14-12----12-14-12-(12)---(12)\---||
|-----------------------------------------------|----------14-------------------------||
|-----------------------------------------------|-------------------------------------||

w/Rhy Fig 2 to end
  W              Q    E S S S  S  S S  S  S  S S    H     H
|-------------|----------------------------------|---------------|
|-------------|------15-------15-15---15-15-15---|-15\-----------|
|-------------|---------x-x-x-------x------------|---------------|
|-------------|----------------------------------|---------------|
|-------------|----------------------------------|---------------|
|-------------|----------------------------------|---------------|

E   E  +S   S  S  S  S  S  S  S  +S   S  S  S
|-------------------------------------------------|
|-----15-(15)-15-15----15-15-12-15-(15)-12-15-15--|
|-------------------12----------------------------|
|-------------------------------------------------|
|-------------------------------------------------|
|-------------------------------------------------|

~~~~
   a      +H      +Q     Q
|----------------------------|
|-15b17==(15)----(15)r\------|
|----------------------------|
|----------------------------|
|----------------------------|
|----------------------------|

E   E S  S  S  S  S  S  S      +S    S  S  S  S    H     H
|--------------------------------------------------|---------------*|
|-----15---15-15----15-15-15b17==(15)r-12-12-15-15-|-15\-----------*|
|----------------12--------------------------------|---------------*|
|--------------------------------------------------|---------------*|
|--------------------------------------------------|---------------*|
|--------------------------------------------------|---------------*|
 
 
Quiet Riot - Cum On Feel The Noize :: indexed at Ultimate Guitar.
Cum On Feel The Noize tabs @ 911Tabs
People who played Quiet Riot - Cum On Feel The Noize also played these songs by Quiet Riot:
Bang Your Head Tab, Thunderbird Chords, Cum On Feel The Noize Chords, Cum On Feel The Noize Chords, Metal Health Tab, Bang Your Head Tab

Quick tip, so you can enjoy Cum On Feel The Noize even more:

After the registration (which takes just 10 seconds, remember?) you will be able to use your profile - your very own piece of YourChords.com.

Show us your talent, perform Cum On Feel The Noize!

Here you can post a video or audio performance. Tell me more ...
Where can we find your performance? Tell me more ...
Your comment:
Please, log in to post your performance.