Artists by letter: A B C D E F G H I J K L M N O P Q R S T U V W X Y Z 0-9

 
Bang Your Head Metal Health
Bang Your Head by Quiet Riot
Tuning: Eb Ab Db Gb Bb eb

Legend: 
h - Hammer-on
p - Pull-off
/ - Slide
~ - Let note ring
x - Mute note
T - Tap


Intro/Chorus
(You could also play it with the A, C, and G chords, but I don't think it sounds as good)

      A      C      G      G      C A C A
e|----------------------------------------|
B|----------------------------------------|
G|----2------5--------------------5-2-5-2-|
D|----2------5------5------5------5-2-5-2-|
A|----0------3------5------5------3-0-3-0-|
E|------------------3------3--------------|

Chorus


e|----------------------------------------------------------------------
B|----------------------------------------------------------------------
G|----2------5--------------------5-2-5-2--------2------5---------------
D|----2------5------5------5------5-2-5-2--------2------5------5------5-
A|----0------3------5------5------3-0-3-0--------0------3------5------5-
E|------------------3------3---------------0-3~----------------3------3-

e|------------------------------------------------------------------|
B|---------------0-3------------------------------------------------|
G|----5-2-5-2----0-2----2------5--------------------5-2-5-2----0-0-2|
D|----5-2-5-2-----------2------5------5------5------5-2-5-2----0-0-2|
A|----3-0-3-0-----------0------3------5------5------3-0-3-0---------|
E|------------------------------------3------3----------------------|


Verse x2


e|--------------------------------|
B|--------------------------------|
G|------6~----8~-----9~----8~-----|
D|------7~----9~----10~----9~-----|
A|------7~----9~----10~----9~-----|
E|--------------------------------|
     "I'm....Pile..Mother..Mind"

Pre-Chorus

         |-----P.M.--| |----P.M.---| |----P.M.---| |----P.M.---|
e|------------------------------------------------------------------------------------------------------|
B|------------------------------------------------------------------------------------------------------|
G|--0-0-2-------------4-------------5-------------4-----------------2------4------5-------7--7--7--5--5-|
D|--0-0-2-------------4-------------5-------------4-------------5-5-2------4------5-------7--7--7--5--5-|
A|--------0-0-0-0-0-0---0-0-0-0-0-0---0-0-0-0-0-0---0-0-0-0-0-0-5-5-0------0------3-------5--5--5--3--3-|
E|--------------------------------------------------------------3-3-------------------------------------|


Chorus

Riff after 2nd Chorus


e|-------20--------------------------------------
B|-----------17~-20------------------------------
G|-------------------17~-19----------------------
D|---------------------------17~-19--------------
A|-----------------------------------17--15--17--
E|-----------------------------------------------


Verse

Pre-Chorus

Chorus

Pre-Solo

e|---------------------------------|
B|---------------------------------|
G|---0-5---------0-5-2-------0-5---|
D|---0-5-5-------0-5-2-------0-5-5-|
A|-----3-5---------3-0---------3-5-|
E|-------3-----------------------3-|


Solo

                                                                    T        T        T        T        T
e|------------------7-5-7-5-------5--4--------------------x-8~----------------------------------------------
B|----10--10-10----7-7------7-5-7--7--7---------5---------x----10h13h17-10h13h17-10h13h17-10h13h17-10h13h17-
G|----12--12-12--8----------------------7-7-4-7---7-------x-------------------------------------------------
D|--------------------------------------------------7-7-9---------------------------------------------------
A|----------------------------------------------------------------------------------------------------------
E|----------------------------------------------------------------------------------------------------------

         T        T        T        T        T           T        T        T        T           T        T
e|----------------------------------------------------------------------------------------------------------
B|-10h13h17-10h13h17-10h13h17-10h13h17-10h13h17/18-10h13h17-10h13h17-10h13h17-10h13h17/18-10h13h17-10h13h17-
G|----------------------------------------------------------------------------------------------------------
D|----------------------------------------------------------------------------------------------------------
A|----------------------------------------------------------------------------------------------------------
E|----------------------------------------------------------------------------------------------------------

         T        T           T        T        T        T        T        T        T         T         T
e|------------------------------------------------------------------------------------------------------------
B|-10h13h17-10h13h17/18-10h13h18-10h13h18-10h13h18-10h13h18-10h13h18-10h13h17-10h13h17h-10h13h17--10h13h17----
G|------------------------------------------------------------------------------------------------------------
D|------------------------------------------------------------------------------------------------------------
A|------------------------------------------------------------------------------------------------------------
E|------------------------------------------------------------------------------------------------------------

           (Tremelo)
e|---12----101010101010101010101010-141414141414-151515151515-17171717-14141414-15151515-171717-151515-171717-
B|-13--12~----------------------------------------------------------------------------------------------------
G|------------------------------------------------------------------------------------------------------------
D|------------------------------------------------------------------------------------------------------------
A|------------------------------------------------------------------------------------------------------------
E|------------------------------------------------------------------------------------------------------------


e|-191919191919-----------------------------------------------------------------------------|
B|--------------17171717----------17171717--------------------------------------------------|
G|-----------------------15151515----------15151515----------16161616-----------------------|
D|--------------------------------------------------14141414----------15151515----------12/-|
A|-----------------------------------------------------------------------------14141414-12/-|
E|--------------------------------------------------------------------------------------12/-|


Chorus


After the First part of the Chorus play this


          (Tremelo)
e|--------151515151515151515151515151515151515151515151515151515151515151515151515p12-15p12~~~-
B|-----15--------------------------------------------------------------------------------------
G|--14-----------------------------------------------------------------------------------------
D|---------------------------------------------------------------------------------------------
A|---------------------------------------------------------------------------------------------
E|---------------------------------------------------------------------------------------------


Bridge (Bass plays for a little bit, mute all the strings and strum w/ delay when you hear it in the song)


e|---------------3-5-5-3-5-3-8~~---------------------8-8----8-8-5~~---------------------0-5h8p5h8p5h8p5h8p5h8p5h
B|-------------------------------------------------------10-----------------------------------------------------
G|--------------------------------------------------------------------------------------------------------------
D|--------------------------------------------------------------------------------------------------------------
A|--------------------------------------------------------------------------------------------------------------
E|--------------------------------------------------------------------------------------------------------------
    "Bang your head.."                 "Wake the dead..."            "We're all metal mad.."    


e|8p5h8p5h8~---8-10----8-8-5-----------------------10-10-8-10-8-8-15---------15-------15-------15----
B|------------------10-----------------------------------------------15---------15p13----15p13----15-
G|---------------------------------------------------------------------------------------------------
D|---------------------------------------------------------------------------------------------------
A|---------------------------------------------------------------------------------------------------
E|---------------------------------------------------------------------------------------------------
        "It's all you have..."       "So bang your head.."            "Raise the dead.."           


e|-15-15p12-15p12-15p12-15p12-15p12-15p12-15p12-15p12-15p12~~---|
B|--------------------------------------------------------------|
G|--------------------------------------------------------------|
D|--------------------------------------------------------------|
A|--------------------------------------------------------------|
E|--------------------------------------------------------------|
   "Metal health.."                        "It drives you mad..."

Chorus until the end of the song

(There's some more solo bits, but I don't know those)
 
 
Quiet Riot - Bang Your Head Metal Health :: indexed at Ultimate Guitar.
Bang Your Head Metal Health tabs @ 911Tabs
People who played Quiet Riot - Bang Your Head Metal Health also played these songs by Quiet Riot:
Bang Your Head Tab, Thunderbird Chords, Cum On Feel The Noize Chords, Cum On Feel The Noize Chords, Metal Health Tab, Bang Your Head Tab

Quick tip, so you can enjoy Bang Your Head Metal Health even more:

YourChords.com Guitar Chords and Tabs Archive is currently indexing over 240'000 songs from 21'000+ different artists. And new chords just keep on coming in, so you will surely never run out of them.

Show us your talent, perform Bang Your Head Metal Health!

Here you can post a video or audio performance. Tell me more ...
Where can we find your performance? Tell me more ...
Your comment:
Please, log in to post your performance.