Artists by letter: A B C D E F G H I J K L M N O P Q R S T U V W X Y Z 0-9

 
Estas Loca
E|-----------------------------------------
B|-----------------------------------------
G|-----------------------------------------
D|---5-3-2-------2-3-5-3-2-----------------
A|-3-------5-5-3-----------3---------------
E|-----------------------------------------
SE REPITE UNA VEZ MAS


(*)
E|-----------------------------------------
B|-----------------------------------------
G|-5-4-2-0-------0-------------------------
D|---------3-2-3---------------------------
A|-----------------------------------------
E|-----------------------------------------

ESTE ULTIMO SOLO LO HACE CUANDO APARECE EL (*)


C
Un dia de verano,
G
sali a caminar
F
y justo con vos
C   (*)
me tube que encontrar

C
Vos ni me miraste
G
ni qusiste saludar
F
sacaste un arma
C     (*)
y quisiste disparar

C
Estas loca, loca, loca, loca
G
loca, loca, loca, loca
F                   (*)C
loca, loca, loca, ohohoh

BIS

1ER ESTROFA

ESTRIBILLO X2
 
 
Quemando Neuronas - Estas Loca :: indexed at Ultimate Guitar.
Estas Loca tabs @ 911Tabs
People who played Quemando Neuronas - Estas Loca also played these songs by Quemando Neuronas:
El Aguila Chords, Estas Loca Chords, Bajo La Lluvia Chords, Almas Perdidas Chords, Almas Perdidas, El Aguila

Quick tip, so you can enjoy Estas Loca even more:

You might want to transpose the song if it is too high or too low for you to sing. Just click the desired option while playing a song and all the chords will automatically be transponded into a new key.

Show us your talent, perform Estas Loca!

Here you can post a video or audio performance. Tell me more ...
Where can we find your performance? Tell me more ...
Your comment:
Please, log in to post your performance.