Artists by letter: A B C D E F G H I J K L M N O P Q R S T U V W X Y Z 0-9

 
I Wanna Be Happy
Intro
---------------------------------------------------------------|
---------------------------------------------------------------|
------9-9-----11-11-11-11-11-11-11-11-11-11-11-11-11-11-11-11--|
--9-9-9-9-9-9-11-11-11-11-11-11-11-11-11-11-11-11-11-11-11-11--|
--9-9-7-7-9-9--9--9--9--9--9--9--9--9--9--9--9--9--9--9--9--9--|
--7-7-----7-7--------------------------------------------------|

Verse
-----------------------------------|
-----------------------------------|
--4-4-4-4-4-4-4-4------------------| x3
--4-4-4-4-4-4-4-4-2-2-2-2-4-4-4-4--|
--2-2-2-2-2-2-2-2-2-2-2-2-4-4-4-4--|
------------------0-0-0-0-2-2-2-2--|

---------------------------------------------------------------|
---------------------------------------------------------------|
------9-9-----11-11-11-11-11-11-11-11-11-11-11-11-11-11-11-11--|
--9-9-9-9-9-9-11-11-11-11-11-11-11-11-11-11-11-11-11-11-11-11--|
--9-9-7-7-9-9--9--9--9--9--9--9--9--9--9--9--9--9--9--9--9--9--|
--7-7-----7-7--------------------------------------------------|

-----------------------------------|
-----------------------------------|
--4-4-4-4-4-4-4-4------------------| x3
--4-4-4-4-4-4-4-4-2-2-2-2-4-4-4-4--|
--2-2-2-2-2-2-2-2-2-2-2-2-4-4-4-4--|
------------------0-0-0-0-2-2-2-2--|

-----------------------------------|
-----------------------------------|
--4-4-4-4-4-4-4-4-4-4-4-4-4-4-4-4--|
--4-4-4-4-4-4-4-4-4-4-4-4-4-4-4-4--|
--2-2-2-2-2-2-2-2-2-2-2-2-2-2-2-2--|
-----------------------------------|

Pre-chorus
-----------------------------------|
-----------------------------------|
------------------4-4-4-4-4-4-4-4--| x3
--2-2-2-2-2-2-2-2-4-4-4-4-4-4-4-4--|
--2-2-2-2-2-2-2-2-2-2-2-2-2-2-2-2--|
--0-0-0-0-0-0-0-0------------------|

-----------------------------------|
-----------------------------------|
-----------------------------------|
--4-4-4-4-4-4-4-4-4-4-4-4-4-4-4-4--|
--4-4-4-4-4-4-4-4-4-4-4-4-4-4-4-4--|
--2-2-2-2-2-2-2-2-2-2-2-2-2-2-2-2--|

Chorus
---------------------------------------------------|
---------------------------------------------------|
---------------------------------------------------|x4
--9-9-9-9-6-6-4-4-2-2-2-2-2-2-2-2-4-4-4-4-4-4-4-4--|
--9-9-9-9-6-6-4-4-2-2-2-2-2-2-2-2-4-4-4-4-4-4-4-4--|
--7-7-6-6-4-4-2-2-0-0-0-0-0-0-0-0-2-2-2-2-2-2-2-2--|

Chorus lead
---------------------------------------------------------|
---------------------------------------------------------|
------11-11--11-------11/13-11-----11/13-11--------------|
----9-----------9-9-9----------9-9----------8--8-8h9-11--|
---------------------------------------------------------|
---------------------------------------------------------|
 
 
Queers - I Wanna Be Happy :: indexed at Ultimate Guitar.
I Wanna Be Happy tabs @ 911Tabs

Quick tip, so you can enjoy I Wanna Be Happy even more:

Try out the AutoScroller option ... It scrolls the page for you, so you can totally focus on nailing that solo. You can choose among different speeds using your mouse or your keyboard (keys 0, 1, 2 and 3).

Show us your talent, perform I Wanna Be Happy!

Here you can post a video or audio performance. Tell me more ...
Where can we find your performance? Tell me more ...
Your comment:
Please, log in to post your performance.