Artists by letter: A B C D E F G H I J K L M N O P Q R S T U V W X Y Z 0-9

 
Pretty Polly
QUEEN ADREENA " PRETTY POLLY (Accoustic)

CAPO 5
Listen to song for exact timing.
Part 1
e-----0-----------3-2---|
b-----1---------------3-|
g-----0--------5--------|
d-----2-------5---------|
a--0--0-----------------|
e-----------0-----------|
Part 2
e---------------------------1----------------------|
b----1---1-1---1---1-1------1----------1-----------|
g----0---0-0---0---0-0------2--------2---2---------|     …go to part 1 (skip first open note)
d----2---2-2---2---2-2---0--0------0--------0------|
a-0--0---0-0---0---0-0-----------3-----------------|
e----------------------------------------------3s5-|
Part 3
e-------0---------3-2---|
b-------1-------------3-|
g--2-2--0---------------|
d--2-2--2---2-2-2-------|
a--0-0--0---2-2-2-------|
e-----------0-0-0-------|
Part 4
e-------0---------0----------1----------1--|
b-------1---------1-----1-1--1---1-1-1-1---|
g--2-2--0---2-2-2-0-----2-2--2---2-2-2-2---|
d--2-2--2---2-2-2-2-----0-0--0---0-0-0-0---|
a--0-0--0---0-0-0-0------------------------|
e------------------------------------------|

(Part 1) Riff x 2 Intro
Polly pretty Polly come go away with me
Polly pretty Polly come go away with me
(Part 2)                               (Part1)
Before we get married some pleasures to seeeeee
Riff x 2
She jumped up beside him and away they did go
She jumped up beside him and away they did go
(Part 2)                              (Part1)
Ov-er the moun-tains and the valleys be-lowwww
(Percussion kicks in here) Riff x 2
Billy oh Billy I'm afraid for my life
Billy oh Billy I'm afraid for my life
(Part 2)                                         (Part1)
I'm afraid you mean to murder me… and leave me be-hiiiiind
Riff x 2
Polly pretty Polly you're guessing about right
Polly pretty Polly you're guessing about right
(Part2)                                                 (Part1)
I've been digging your grave for the best part of your liiiiiife
Riff x 2
(Part3)
He stabbed her through the heart and her hot blood did flow
He stabbed her through the heart and her hot blood did flow
(Part4)                             (Part3)
And into the grave pretty Polly did go....
Riff x 6 Ohhh, oh-ohhh x3 
(Part1)
He threw a little dirt over her and started for home
He threw a little dirt over her and started for home
(Part2)                                    (Part1)
Leaving nobody there but the wild birds to moan
(Part3)
A debt to the devil Billy must pay
A debt to the devil Billy must pay
(Part4)                               (Part3)
For killing pretty Polly and running a-way
Running awaaaay, awaaay x5
Running awaaaaay (End on first chord from part 3)

 
 
Queen Adreena - Pretty Polly :: indexed at Ultimate Guitar.
Pretty Polly tabs @ 911Tabs
People who played Queen Adreena - Pretty Polly also played these songs by Queen Adreena:
Pretty Polly Tab, Pretty Polly Tab, Weeds Tab, Pretty Like Drugs Tab, For I Am The Way Tab, Pretty Polly Tab

Quick tip, so you can enjoy Pretty Polly even more:

You might want to transpose the song if it is too high or too low for you to sing. Just click the desired option while playing a song and all the chords will automatically be transponded into a new key.

Show us your talent, perform Pretty Polly!

Here you can post a video or audio performance. Tell me more ...
Where can we find your performance? Tell me more ...
Your comment:
Please, log in to post your performance.