Artists by letter: A B C D E F G H I J K L M N O P Q R S T U V W X Y Z 0-9

 
Fantasma
tabbed by:mosko hudson
so this it enjoy!



INTRO
|------------------|-------------------|-------------------|
|------------------|-------------------|-------------------|
|-2-2-2-4-4-1-1-2-2|-2-2-2-4-4-1-1-2-2-|-6-6-4-4-2-2-2-2-2-| X3
|------------------|-------------------|-------------------|
|------------------|-------------------|-------------------|
|------------------|-------------------|-------------------|
  This is clean and with palm mute.

EN MIS SUE'OS TE APARECES....
|-------0-|-------0-|--------0-|---------0| you can make this with a 
|-------0-|-------0-|--------0-|-------0--| chorus effect.
|-----6-6-|-----4-4-|-----2--2-|-----4----|
|---6---6-|---4"--4-|---2----2-|---4------|
|-4-----4-|-2-----2-|-0------0-|-2--------|
|---------|---------|----------|----------|

|-------0-|-------0-|--------0-|            
|-------0-|-------0-|--------0-|
|-----6-6-|-----4-4-|-----2--2-|
|---6---6-|---4"--4-|---2----2-|
|-4-----4-|-2-----2-|-0------0-|
|---------|---------|----------|

|------------------|-------------------|-------------------|
|------------------|-------------------|-------------------|
|-2-2-2-4-4-1-1-2-2|-2-2-2-4-4-1-1-2-2-|-6-6-4-4-2-2-2-2-2-| X2
|------------------|-------------------|-------------------|
|------------------|-------------------|-------------------|
|------------------|-------------------|-------------------|

Y LO GUARDO PORQUE SIENTO...
|-------0-|-------0-|--------0-|---------0|
|-------0-|-------0-|--------0-|-------0--|
|-----6-6-|-----4-4-|-----2--2-|-----4----|
|---6---6-|---4"--4-|---2----2-|---4------|
|-4-----4-|-2-----2-|-0------0-|-2--------|
|---------|---------|----------|----------|

|-------0-|-------0-|--------0-|
|-------0-|-------0-|--------0-|
|-----6-6-|-----4-4-|-----2--2-| X2
|---6---6-|---4"--4-|---2----2-|
|-4-----4-|-2-----2-|-0------0-|
|---------|---------|----------|

DESAPARESISTE...
|---------------|-------------|--------------|--------------|
|---------------|-------------|--------------|--------------|
|---------------|-------------|--------------|--------------|
|---------------|-44444444444-|-666666666666-|-222222222222-|
|-2222222222222-|-22222222222-|-444444444444-|-000000000000-|
|-0000000000000-|-------------|--------------|--------------|

ERES UN FANTASMA...
|------------------|-------------------|-------------------|
|------------------|-------------------|-------------------|
|-2-2-2-4-4-1-1-2-2|-2-2-2-4-4-1-1-2-2-|-6-6-4-4-2-2-2-2-2-| X2
|------------------|-------------------|-------------------|
|------------------|-------------------|-------------------|
|------------------|-------------------|-------------------|

Y TE EXTRA'O....
|-------0-|-------0-|--------0-|---------0|
|-------0-|-------0-|--------0-|-------0--|
|-----6-6-|-----4-4-|-----2--2-|-----4----|
|---6---6-|---4"--4-|---2----2-|---4------|
|-4-----4-|-2-----2-|-0------0-|-2--------|
|---------|---------|----------|----------|

|-------0-|-------0-|--------0-|
|-------0-|-------0-|--------0-|
|-----6-6-|-----4-4-|-----2--2-|
|---6---6-|---4"--4-|---2----2-|
|-4-----4-|-2-----2-|-0------0-|
|---------|---------|----------|



DESAPARESISTE...
|---------------|-------------|--------------|--------------|
|---------------|-------------|--------------|--------------|
|---------------|-------------|--------------|--------------|
|---------------|-44444444444-|-666666666666-|-222222222222-|
|-2222222222222-|-22222222222-|-444444444444-|-000000000000-|
|-0000000000000-|-------------|--------------|--------------|

Y COMO OLVIDASTE...
|---------------|-------------|--------------|--------------|
|---------------|-------------|--------------|--------------|
|---------------|-------------|--------------|--------------|
|---------------|-44444444444-|-666666666666-|-222222222222-|
|-2222222222222-|-22222222222-|-444444444444-|-000000000000-|
|-0000000000000-|-------------|--------------|--------------|

|--------------|
|--------------|
|-2-2-2--4-4-4-|
|-0-0-0--2-2-2-|
|--------------|
|--------------|

SOLO
|----------------------------------------------------------|
|----------------------------------------------------------|
|-6-6-6-6-6-6-6--8-8-8-8-8"-9-9-9-9-9-9-9------------------|
|-x-x-x-x-x-x-x--x-x-x-x-x--x-x-x-x-x-x-x------------------|
|-4-4-4-4-4-4-4"-6-6-6-6-6"-7-7-7-7-7-7-7------------------|
|----------------------------------------------------------|

|----------------------------------------------------|
|----------------------------------------------------|
|----------------------------------------------------|
|-9-9-9-9-9-9--7-7-7-7-7-7--6-6-6-6-6-6--4-4-4-4-4-4-|
|-x-x-x-x-x-x--x-x-x-x-x-x--x-x-x-x-x-x--x-x-x-x-x-x-|
|-7-7-7-7-7-7--5-5-5-5-5-5--4-4-4-4-4-4--2-2-2-2-2-2-|

|----------------------------------------------|
|----------------------------------------------|
|-6-6-6-6-6-6-6--8-8-8-8-8"-11-11--13-13-13----|
|-x-x-x-x-x-x-x--x-x-x-x-x--x--x---x--x--x-----|
|-4-4-4-4-4-4-4"-6-6-6-6-6"-9--9---11-11-11----|
|----------------------------------------------|

|------------------------------------------|
|------------------------------------------|
|-8-8-8-8-8"-9-9-9-9-9-9-9--11-11-11-11-11-|
|-x-x-x-x-x--x-x-x-x-x-x-x--x--x--x--x--x--|
|-6-6-6-6-6"-7-7-7-7-7-7-7--9--9--9--9--9--|
|------------------------------------------|

|--------------------------|
|--------------------------|
|-8-8-8-8-8"-9-9-9-9-9-9-9-|
|-x-x-x-x-x--x-x-x-x-x-x-x-|
|-6-6-6-6-6"-7-7-7-7-7-7-7-|
|--------------------------|

Despues del solo
|--------------|
|-9-x-9-x-10p9-|
|-9-x-9-x-9----|
|--------------| x4
|--------------|
|--------------|



SANGRARE...
|-----------------------|
|-----------------------|
|-9-9-9-9/4/9-9-9-9/4---|
|-x-x-x-x-x-x-x-x-x-x---|
|-7-7-7-7/2/7-7-7-7/2---|
|-----------------------|



DESAPARESISTE...
|---------------|-------------|--------------|--------------|
|---------------|-------------|--------------|--------------|
|---------------|-------------|--------------|--------------|
|---------------|-44444444444-|-666666666666-|-222222222222-|
|-2222222222222-|-22222222222-|-444444444444-|-000000000000-|
|-0000000000000-|-------------|--------------|--------------|

Y COMO OLVIDASTE...
|---------------|-------------|--------------|--------------|
|---------------|-------------|--------------|--------------|
|---------------|-------------|--------------|--------------|
|---------------|-44444444444-|-666666666666-|-222222222222-|
|-2222222222222-|-22222222222-|-444444444444-|-000000000000-|
|-0000000000000-|-------------|--------------|--------------|

okey thats all!! slash!!!
i love you brenda!
 
 
Qbo - Fantasma :: indexed at Ultimate Guitar.
Fantasma tabs @ 911Tabs

Quick tip, so you can enjoy Fantasma even more:

After the registration (which takes just 10 seconds, remember?) you will be able to use your profile - your very own piece of YourChords.com.

Show us your talent, perform Fantasma!

Here you can post a video or audio performance. Tell me more ...
Where can we find your performance? Tell me more ...
Your comment:
Please, log in to post your performance.