Artists by letter: A B C D E F G H I J K L M N O P Q R S T U V W X Y Z 0-9

 
Desvanecer
Esta rola esta bien chida y va para mi prima Berenice que le late mucho esta rola

Intro
E------------------------------------------------   
B------------------------------------------------
G------------------------------------------------       x2
D---9-555-8-555-9-555---9--7---------------------
A---9-555-8-555-9-555---9--7--0-2-2-2-2-0--------  
E---7-555-6-555-7-555---7--5---------------------

Verso
e------------------------------------------------
B------------------------------------------------
G-------3-------------2----(5)---(3)-------------     x2
D------------------------------------------------
A---3-3-----------0-0----------------------------
E------------------------------------------------

Intro 2
E-----------------------------------------------------------
B-----------------------------------------------------------
G------------------------------7h87/87/87/87/87/87/87/8-----
D--9-555-8-555-9-555----------------------------------------
A--9-555-8-555-9-555----------------------------------------
E--7-555-6-555-7-555----------------------------------------

Verso x2

Coro
E-------------------------------------------------
B-------------------------------------------------
G--55---------22--------44-4-44-------------------    x2
D--55---------22--------44-4-44--55-55-5----------
A--33-5/66---00-5/66---22-2-22--55-55-5-----------
E------------------------------------33-33-3------

Intro2  x1

Verso  x2

Coro  x2

Interlude
E--------------------------
B--------------------------
G---1010-1010-10-----------
D---1010-1010-10-----------
A----8-8--8-8--8-----------
E---x-x-x-x-x-x-x-x-x------

¡No te quiero ver desvanecer! 
E------------------------------------------------------
B------------------------------------------------------
G------7--7------7--7-----7------11-11-----11-11-----7-
D------9--9------9--9-----9-------9--9------9--9-----9-
A-7-7--7--7-7-7--7--7-7-7-7--7-7--7--7-7-7--7--7-7-7-7-
E------------------------------------------------------

E---------------------------------------------------------
B---------------------------------------------------------
G------7--7------7--7-----7------11-11-----11-11-----7----
D------9--9------9--9-----9-------9--9------9--9-----9----
A-7-7--7--7-7-7--7--7-7-7-7--7-7--7--7-7-7--7--7-7-7-7----
E---------------------------------------------------------

E---------------------------------------------------
B---------------------------------------------------
G------7--7------7--7------7------7-7-----7-7-----7-
D------9--9------9--9------9------9-9-----9-9-----9-
A-0-0-------0-0-------0-0-----0-0-----0-0-----0-0---
E---------------------------------------------------

E------------------------------------------------------
B------8--8------8--8------8------7-7-----7-7-----7----
G-----11-11-----11-11-----11------7-7-----7-7-----7----
D------9--9------9--9------9------7-7-----7-7-----7----
A-7-7--7--7-7-7--7--7-7-7--7--9-9-----9-9-----9-9------
E------------------------------------------------------

E-----------------------------------------------
B-----------------------------------------------
G-----------------------------------------------
D-----------------------------------------------
A--3-1-1-3-1-3-1-1-3-1-3-1-1-1------------------
E------------------------------------------/12\-

Coro  x4

Verso  x2



Ahí esta me tarde 10 minutos en sacarla, les debo la letra espero que les
guste .Si ahí dudas preguntas o mentadas escríbanme a
[email protected]  o a [email protected] ha por hay agregenme byek
 
 
Qbo - Desvanecer :: indexed at Ultimate Guitar.
Desvanecer tabs @ 911Tabs

Quick tip, so you can enjoy Desvanecer even more:

YourChords.com Guitar Chords and Tabs Archive is currently indexing over 240'000 songs from 21'000+ different artists. And new chords just keep on coming in, so you will surely never run out of them.

Show us your talent, perform Desvanecer!

Here you can post a video or audio performance. Tell me more ...
Where can we find your performance? Tell me more ...
Your comment:
Please, log in to post your performance.