Artists by letter: A B C D E F G H I J K L M N O P Q R S T U V W X Y Z 0-9

 
Lagi Mong Tatandaan
Title: Lagi Mong Tatandaan
Artist: Parokya ni Edgar
Album: ?
Tabbed by: edronabrera & jannguerra
Tuning: Standard
Key: A

This tab is dedicated to kim

Feel free to correct some portion of this tab
Support OPM
Enjoy!


[Intro]

   GtrI
        A                F#               C#               D        E
e|---------------------------------------------------------------------------|
B|---------------------------------------------------------------------------|
G|----------------------------------------6-6-6-6-6-6-6-6--7-7-7-7--9-9-9-9--|
D|------7-7-7-7-7-7-7-7--4-4-4-4-4-4-4-4--6-6-6-6-6-6-6-6--7-7-7-7--9-9-9-9--|
A|------7-7-7-7-7-7-7-7--4-4-4-4-4-4-4-4--4-4-4-4-4-4-4-4--5-5-5-5--7-7-7-7--|
E|------5-5-5-5-5-5-5-5--2-2-2-2-2-2-2-2-------------------------------------|


        A                F#               C#               D        E
e|---------------------------------------------------------------------------|
B|---------------------------------------------------------------------------|
G|----------------------------------------6-6-6-6-6-6-6-6--7-7-7-7--9-9-9-9--|
D|------7-7-7-7-7-7-7-7--4-4-4-4-4-4-4-4--6-6-6-6-6-6-6-6--7-7-7-7--9-9-9-9--|
A|------7-7-7-7-7-7-7-7--4-4-4-4-4-4-4-4--4-4-4-4-4-4-4-4--5-5-5-5--7-7-7-7--|
E|------5-5-5-5-5-5-5-5--2-2-2-2-2-2-2-2-------------------------------------|


   GtrII
                 A                    F#
e|---------------------------------------------------------------------------|
B|---------7-10--9b~~~~----9pb--9pb---9pbr----7--------5h7p5-----------------|
G|----6/9---------------------------------------6-----------7----------------|
D|------------------------------------------------------------7--------------|
A|---------------------------------------------------------------------------|
E|---------------------------------------------------------------------------|
     C#m                        D .  .  . .  .  .   E
e|---------------------------------------------------------------------------|
B|-----------------------------------------------------10----10h12-12--------|
G|---------------------------------------------9---9h11----11----------------|
D|---6-7-6--------------------------------9h11---11--------------------------|
A|---------7--7/9--------------------9-12------------------------------------|
E|-----------------7/9~~~~------9-12-----------------------------------------|
            A                               F#m
e|------------------------------------------12-9-----------9-----------------|
B|---10--12/14 -14-14-14/17---17-17b-17b~~~------12-10 12b----12b--10--------|
G|--------------------------------------------------------------------11~----|
D|---------------------------------------------------------------------------|
A|---------------------------------------------------------------------------|
E|---------------------------------------------------------------------------|
    C#                           D                E                  A
e|--------------------------------------------------5----------------0~------|
B|----------5----------------------5-------5------7---7---5h7 5------5~------|
G|--6b--4-6---6-4-2-6+~~--4-2----6---6-4-6---6-4--------6-------6------------|
D|----------------------------4----------------------------------------------|
A|---------------------------------------------------------------------------|
E|---------------------------------------------------------------------------|


[Chorus]

   GtrI and II
        A                F#               C#               D        E
e|---------------------------------------------------------------------------|
B|---------------------------------------------------------------------------|
G|----------------------------------------6-6-6-6-6-6-6-6--7-7-7-7--9-9-9-9--|
D|------7-7-7-7-7-7-7-7--4-4-4-4-4-4-4-4--6-6-6-6-6-6-6-6--7-7-7-7--9-9-9-9--|
A|------7-7-7-7-7-7-7-7--4-4-4-4-4-4-4-4--4-4-4-4-4-4-4-4--5-5-5-5--7-7-7-7--|
E|------5-5-5-5-5-5-5-5--2-2-2-2-2-2-2-2-------------------------------------|

        A                F#               C#               D        E
e|---------------------------------------------------------------------------|
B|---------------------------------------------------------------------------|
G|----------------------------------------6-6-6-6-6-6-6-6--7-7-7-7--9-9-9-9--|
D|------7-7-7-7-7-7-7-7--4-4-4-4-4-4-4-4--6-6-6-6-6-6-6-6--7-7-7-7--9-9-9-9--|
A|------7-7-7-7-7-7-7-7--4-4-4-4-4-4-4-4--4-4-4-4-4-4-4-4--5-5-5-5--7-7-7-7--|
E|------5-5-5-5-5-5-5-5--2-2-2-2-2-2-2-2-------------------------------------|

        F#
E|-----------------------------------------|
B|-----------------------------------------|
G|-----------------------------------------|
D|------4-4-xx---4-4-xx---4-4-xx---4-4-xx--|
A|------4-4-xx---4-4-xx---4-4-xx---4-4-xx--|
E|------2-2-xx---2-2-xx---2-2-xx---2-2-xx--|


[Verse]  

(You can also use acoustic chords)

   Gtr I 
        F#m              D                A                E      
e|---------------------------------------------------------------------------|
B|---------------------------------------------------------------------------|
G|-----------------------7-7-7-7-7-7-7-7-------------------------------------|
D|------4-4-4-4-4-4-4-4--7-7-7-7-7-7-7-7--7-7-7-7-7-7-7-7--2-2-2-2-2-2-2-2---|
A|------4-4-4-4-4-4-4-4--5-5-5-5-5-5-5-5--7-7-7-7-7-7-7-7--2-2-2-2-2-2-2-2---|
E|------2-2-2-2-2-2-2-2-------------------5-5-5-5-5-5-5-5--0-0-0-0-0-0-0-0---|

        F#m              D                A                E      
e|---------------------------------------------------------------------------|
B|---------------------------------------------------------------------------|
G|-----------------------7-7-7-7-7-7-7-7-------------------------------------|
D|------4-4-4-4-4-4-4-4--7-7-7-7-7-7-7-7--7-7-7-7-7-7-7-7--2-2-2-2-2-2-2-2---|
A|------4-4-4-4-4-4-4-4--5-5-5-5-5-5-5-5--7-7-7-7-7-7-7-7--2-2-2-2-2-2-2-2---|
E|------2-2-2-2-2-2-2-2-------------------5-5-5-5-5-5-5-5--0-0-0-0-0-0-0-0---|


[Pre-Chorus]

   Gtr I and II
        F#              D                 A                E
e|---------------------------------------------------------------------------|
B|---------------------------------------------------------------------------|
G|-----------------------7-7-7-7-7-7-7-7-------------------------------------|
D|------4-4-xx--4-4-xx---7-7-7-7-7-7-7-7--7-7-7-7-7-7-7-7--2-2-2-2-2-2-2-2---|
A|------4-4-xx--4-4-xx---5-5-5-5-5-5-5-5--7-7-7-7-7-7-7-7--2-2-2-2-2-2-2-2---|
E|------2-2-xx--2-2-xx--------------------5-5-5-5-5-5-5-5--0-0-0-0-0-0-0-0---|

        E
e|------------------------|
B|------------------------|
G|------------------------|
D|------2-2-2-2-2-2-2-2---|
A|------2-2-2-2-2-2-2-2---|
E|------0-0-0-0-0-0-0-0---|


[Chorus]

   GtrI and II
        A                F#               C#               D        E
e|---------------------------------------------------------------------------|
B|---------------------------------------------------------------------------|
G|----------------------------------------6-6-6-6-6-6-6-6--7-7-7-7--9-9-9-9--|
D|------7-7-7-7-7-7-7-7--4-4-4-4-4-4-4-4--6-6-6-6-6-6-6-6--7-7-7-7--9-9-9-9--|
A|------7-7-7-7-7-7-7-7--4-4-4-4-4-4-4-4--4-4-4-4-4-4-4-4--5-5-5-5--7-7-7-7--|
E|------5-5-5-5-5-5-5-5--2-2-2-2-2-2-2-2-------------------------------------|

        A                F#               C#               D        E
e|---------------------------------------------------------------------------|
B|---------------------------------------------------------------------------|
G|----------------------------------------6-6-6-6-6-6-6-6--7-7-7-7--9-9-9-9--|
D|------7-7-7-7-7-7-7-7--4-4-4-4-4-4-4-4--6-6-6-6-6-6-6-6--7-7-7-7--9-9-9-9--|
A|------7-7-7-7-7-7-7-7--4-4-4-4-4-4-4-4--4-4-4-4-4-4-4-4--5-5-5-5--7-7-7-7--|
E|------5-5-5-5-5-5-5-5--2-2-2-2-2-2-2-2-------------------------------------|

        F#
E|-----------------------------------------|
B|-----------------------------------------|
G|-----------------------------------------|
D|------4-4-xx---4-4-xx---4-4-xx---4-4-xx--|
A|------4-4-xx---4-4-xx---4-4-xx---4-4-xx--|
E|------2-2-xx---2-2-xx---2-2-xx---2-2-xx--|


[Verse]

(You can also use acoustic chords)

   Gtr I 
        F#m              D                A                E      
e|---------------------------------------------------------------------------|
B|---------------------------------------------------------------------------|
G|-----------------------7-7-7-7-7-7-7-7-------------------------------------|
D|------4-4-4-4-4-4-4-4--7-7-7-7-7-7-7-7--7-7-7-7-7-7-7-7--2-2-2-2-2-2-2-2---|
A|------4-4-4-4-4-4-4-4--5-5-5-5-5-5-5-5--7-7-7-7-7-7-7-7--2-2-2-2-2-2-2-2---|
E|------2-2-2-2-2-2-2-2-------------------5-5-5-5-5-5-5-5--0-0-0-0-0-0-0-0---|

        F#m              D                A                E      
e|---------------------------------------------------------------------------|
B|---------------------------------------------------------------------------|
G|-----------------------7-7-7-7-7-7-7-7-------------------------------------|
D|------4-4-4-4-4-4-4-4--7-7-7-7-7-7-7-7--7-7-7-7-7-7-7-7--2-2-2-2-2-2-2-2---|
A|------4-4-4-4-4-4-4-4--5-5-5-5-5-5-5-5--7-7-7-7-7-7-7-7--2-2-2-2-2-2-2-2---|
E|------2-2-2-2-2-2-2-2-------------------5-5-5-5-5-5-5-5--0-0-0-0-0-0-0-0---|


[Pre-Chorus]

   Gtr I and II
        F#               D                A                E
e|---------------------------------------------------------------------------|
B|---------------------------------------------------------------------------|
G|-----------------------7-7-7-7-7-7-7-7-------------------------------------|
D|------4-4-xx--4-4-xx---7-7-7-7-7-7-7-7--7-7-7-7-7-7-7-7--2-2-2-2-2-2-2-2---|
A|------4-4-xx--4-4-xx---5-5-5-5-5-5-5-5--7-7-7-7-7-7-7-7--2-2-2-2-2-2-2-2---|
E|------2-2-xx--2-2-xx--------------------5-5-5-5-5-5-5-5--0-0-0-0-0-0-0-0---|

        E
e|------------------------|
B|------------------------|
G|------------------------|
D|------2-2-2-2-2-2-2-2---|
A|------2-2-2-2-2-2-2-2---|
E|------0-0-0-0-0-0-0-0---|


[Chorus]

   GtrI and II
        A                F#               C#               D        E
e|---------------------------------------------------------------------------|
B|---------------------------------------------------------------------------|
G|----------------------------------------6-6-6-6-6-6-6-6--7-7-7-7--9-9-9-9--|
D|------7-7-7-7-7-7-7-7--4-4-4-4-4-4-4-4--6-6-6-6-6-6-6-6--7-7-7-7--9-9-9-9--|
A|------7-7-7-7-7-7-7-7--4-4-4-4-4-4-4-4--4-4-4-4-4-4-4-4--5-5-5-5--7-7-7-7--|
E|------5-5-5-5-5-5-5-5--2-2-2-2-2-2-2-2-------------------------------------|

        A                F#               C#               D        E
e|---------------------------------------------------------------------------|
B|---------------------------------------------------------------------------|
G|----------------------------------------6-6-6-6-6-6-6-6--7-7-7-7--9-9-9-9--|
D|------7-7-7-7-7-7-7-7--4-4-4-4-4-4-4-4--6-6-6-6-6-6-6-6--7-7-7-7--9-9-9-9--|
A|------7-7-7-7-7-7-7-7--4-4-4-4-4-4-4-4--4-4-4-4-4-4-4-4--5-5-5-5--7-7-7-7--|
E|------5-5-5-5-5-5-5-5--2-2-2-2-2-2-2-2-------------------------------------|


[Solo]

   Gtr I
        D               E                 F#            D
e|---------------------------------------------------------------------------|
B|---------------------------------------------------------------------------|
G|------7-7-7-7-7-7-7-7--9-9-9-9-9-9-9-9----------------7--7-7-7-7-7-7-7-7---|
D|------7-7-7-7-7-7-7-7--9-9-9-9-9-9-9-9--4-4-4-4-4-4---7--7-7-7-7-7-7-7-7---|
A|------5-5-5-5-5-5-5-5--7-7-7-7-7-7-7-7--4-4-4-4-4-4---5--5-5-5-5-5-5-5-5---|
E|----------------------------------------2-2-2-2-2-2------------------------|

        D               E                 F#            D
e|---------------------------------------------------------------------------|
B|---------------------------------------------------------------------------|
G|------7-7-7-7-7-7-7-7--9-9-9-9-9-9-9-9----------------7--7-7-7-7-7-7-7-7---|
D|------7-7-7-7-7-7-7-7--9-9-9-9-9-9-9-9--4-4-4-4-4-4---7--7-7-7-7-7-7-7-7---|
A|------5-5-5-5-5-5-5-5--7-7-7-7-7-7-7-7--4-4-4-4-4-4---5--5-5-5-5-5-5-5-5---|
E|----------------------------------------2-2-2-2-2-2------------------------|

        D               E
e|-----------------------------------------|
B|-----------------------------------------|
G|------7-7-7-7-7-7-7-7--9-9-9-9-9-9-9-9---|
D|------7-7-7-7-7-7-7-7--9-9-9-9-9-9-9-9---|
A|------5-5-5-5-5-5-5-5--7-7-7-7-7-7-7-7---|
E|-----------------------------------------|


   GtrII
        D                                E
E|------10-----------------------------|-------------12---------------------|
B|-9/10-----10-------9-10-9h10p9-------|---9h10p9--------12--9~-------------|
G|-------------11----------------10~---|-9--------9-------------------------|
D|-------------------------------------|------------------------------------|
A|-------------------------------------|------------------------------------|
E|-------------------------------------|------------------------------------|


   F#                              D  
E|-------------------------------------|----14-12~--9-12-12b~------12-9-----|
B|-10-9h10p9-----------10h12-12b-12~---|------------------------------------|
G|-----------11---9-11-----------------|------------------------------------|
D|-------------------------------------|------------------------------------|
A|-------------------------------------|------------------------------------|
E|-------------------------------------|------------------------------------|

    D                                     E
E|--19br-------------------------------|------------------------------------|
B|----------------------------------17-|-----10---10---10---10--12b~--------|
G|--------------14~-----------16h18----|-9h11---11---11---11----------------|
D|-------------------------------------|------------------------------------|
A|-------------------------------------|------------------------------------|
E|-------------------------------------|------------------------------------|


   F#                               D  
E|-------------------------------------|------------------------------------|
B|-12-10h12p10-------------------------|------------------------------------|
G|------------11--9h11p9---------------|-------9-6--------------------------|
D|----------------------11--9-9h11--7~-|------------7-9--7-10--7-11---------|
A|-------------------------------------|------------------------------------|
E|-------------------------------------|------------------------------------|



   D                                      E                             F#
E|-------------------------------------|------------------------------------|
B|-------------------------------------|-10--7--------10--7--9b---------7~--|
G|-9--6--------9--6--6/7~--------------|--------9--7------------------------|
D|-------9--7--------------------------|------------------------------------|
A|-------------------------------------|------------------------------------|
E|-------------------------------------|------------------------------------|


[Bridge]

   Gtr I and II
        F#              E               A               E
e|---------------------------------------------------------------------------|
B|---------------------------------------------------------------------------|
G|---------------------------------------------------------------------------|
D|------4-4-4-4-4-4-4-4--2-2-2-2-2-2-2-2--7-7-7-7-7-7---2--2-2-2-2-2-2-2-2---|
A|------4-4-4-4-4-4-4-4--2-2-2-2-2-2-2-2--7-7-7-7-7-7---2--2-2-2-2-2-2-2-2---|
E|------2-2-2-2-2-2-2-2--0-0-0-0-0-0-0-0--5-5-5-5-5-5---0--0-0-0-0-0-0-0-0---|

        F#              E               A               E
e|---------------------------------------------------------------------------|
B|---------------------------------------------------------------------------|
G|---------------------------------------------------------------------------|
D|------4-4-4-4-4-4-4-4--2-2-2-2-2-2-2-2--7-7-7-7-7-7---2--2-2-2-2-2-2-2-2---|
A|------4-4-4-4-4-4-4-4--2-2-2-2-2-2-2-2--7-7-7-7-7-7---2--2-2-2-2-2-2-2-2---|
E|------2-2-2-2-2-2-2-2--0-0-0-0-0-0-0-0--5-5-5-5-5-5---0--0-0-0-0-0-0-0-0---|

        D               E
e|-----------------------------------------|
B|-----------------------------------------|
G|------7-7-7-7-7-7-7-7--9-9-9-9-9-9-9-9---|
D|------7-7-7-7-7-7-7-7--9-9-9-9-9-9-9-9---|
A|------5-5-5-5-5-5-5-5--7-7-7-7-7-7-7-7---|
E|-----------------------------------------|


[Chorus]

   GtrI and II
        A                F#               C#               D        E
e|---------------------------------------------------------------------------|
B|---------------------------------------------------------------------------|
G|----------------------------------------6-6-6-6-6-6-6-6--7-7-7-7--9-9-9-9--|
D|------7-7-7-7-7-7-7-7--4-4-4-4-4-4-4-4--6-6-6-6-6-6-6-6--7-7-7-7--9-9-9-9--|
A|------7-7-7-7-7-7-7-7--4-4-4-4-4-4-4-4--4-4-4-4-4-4-4-4--5-5-5-5--7-7-7-7--|
E|------5-5-5-5-5-5-5-5--2-2-2-2-2-2-2-2-------------------------------------|


        A                F#               C#               D        E
e|---------------------------------------------------------------------------|
B|---------------------------------------------------------------------------|
G|----------------------------------------6-6-6-6-6-6-6-6--7-7-7-7--9-9-9-9--|
D|------7-7-7-7-7-7-7-7--4-4-4-4-4-4-4-4--6-6-6-6-6-6-6-6--7-7-7-7--9-9-9-9--|
A|------7-7-7-7-7-7-7-7--4-4-4-4-4-4-4-4--4-4-4-4-4-4-4-4--5-5-5-5--7-7-7-7--|
E|------5-5-5-5-5-5-5-5--2-2-2-2-2-2-2-2-------------------------------------|
  
        Basta't Lagi mong tatandandaan...
        A                F#               C#               D        E
e|---------------------------------------------------------------------------|
B|---------------------------------------------------------------------------|
G|----------------------------------------6-6-6-6-6-6-6-6--7-7-7-7--9-9-9-9--|
D|------7-7-7-7-7-7-7-7--4-4-4-4-4-4-4-4--6-6-6-6-6-6-6-6--7-7-7-7--9-9-9-9--|
A|------7-7-7-7-7-7-7-7--4-4-4-4-4-4-4-4--4-4-4-4-4-4-4-4--5-5-5-5--7-7-7-7--|
E|------5-5-5-5-5-5-5-5--2-2-2-2-2-2-2-2-------------------------------------|

        A                F#               C#               D        E
e|---------------------------------------------------------------------------|
B|---------------------------------------------------------------------------|
G|----------------------------------------6-6-6-6-6-6-6-6--7-7-7-7--9-9-9-9--|
D|------7-7-7-7-7-7-7-7--4-4-4-4-4-4-4-4--6-6-6-6-6-6-6-6--7-7-7-7--9-9-9-9--|
A|------7-7-7-7-7-7-7-7--4-4-4-4-4-4-4-4--4-4-4-4-4-4-4-4--5-5-5-5--7-7-7-7--|
E|------5-5-5-5-5-5-5-5--2-2-2-2-2-2-2-2-------------------------------------|


[Outro]

        F#
E|-----------------------------------------|
B|-----------------------------------------|
G|-----------------------------------------|
D|------4-4-xx---4-4-xx---4-4-xx---4~------|
A|------4-4-xx---4-4-xx---4-4-xx---4~------|
E|------2-2-xx---2-2-xx---2-2-xx---2~------|



************************************

| x    Dead note
| h    Hammer-on
| p    Pull-off
| b    Bend
| br   Bend release
| pb   Pre-bend
| pbr  Pre-bend release
| /    Slide up
| ~    Vibrato

************************************
 
 
Parokya Ni Edgar - Lagi Mong Tatandaan :: indexed at Ultimate Guitar.
Lagi Mong Tatandaan tabs @ 911Tabs
People who played Parokya Ni Edgar - Lagi Mong Tatandaan also played these songs by Parokya Ni Edgar:
Harana Chords, My One And Only You Chords, Gitara Chords, Pangarap Lang Kita Chords, Your Song Chords, Halaga Chords, Sayang Chords, Sorry Na Chords

Quick tip, so you can enjoy Lagi Mong Tatandaan even more:

YourChords.com Guitar Chords and Tabs Archive is currently indexing over 240'000 songs from 21'000+ different artists. And new chords just keep on coming in, so you will surely never run out of them.

Show us your talent, perform Lagi Mong Tatandaan!

Here you can post a video or audio performance. Tell me more ...
Where can we find your performance? Tell me more ...
Your comment:
Please, log in to post your performance.