Artists by letter: A B C D E F G H I J K L M N O P Q R S T U V W X Y Z 0-9

 
Absorbing Man
Absorbing man by Parokya ni Edgar
tabbed by justin carlo c
visit me at my friendster account [email protected]
yahoo messenger - jco_lead

h- hammer on
H- hammer off
s- slide
/- bend

INTRO
guitar1
(clean)
----------------------------------------------------------|
----------------------------------------------------------|
-------------------------------------10h12-10s9-9s7-7-7s9-|
--------5-7---------------11-12s14-14s15------------------|
---5-7-8----8-5-----8-11-12-------------------------------|
--8------------10s12--------------------------------------|

-------------12h13-10---12-10---------10----------------|
--------------------10------10-----10--10---------------|
-9h10-10-7-5-7-----------------10--10-----10------------|
-------------------------------12--------12-11-11-11----|
--------------------------------------------------------|
--------------------------------------------------------|

---------------------10--12--13"13s15-13h15-15-13-15-15-15s17-|
--------------------10-10--10--10-----------------------------|
-9-10-12-10-9-10-9-10/----------------------------------------|
--------------------------------------------------------------|
--------------------------------------------------------------|
--------------------------------------------------------------|

-13h15-13-12-13-10----------------------|
----------------------------------------|
----------------------------------------|
----------------------------------------|
----------------------------------------|
----------------------------------------|

guitar2 (x4)
(clean)
Dm F A# A

VERSE
Guitar2 (x4)
(clean)
Dm F A# A

CHORUS (1st chorus)
(distortion)
----------------------------------------|
----------------------------------------|
----------------------------------------|
-3-5-7-5-3-3-5-7-5-3-7-5-3--------------|
-1-3-5-3-1-1-3-5-3-1-5-3-1--------------|
----------------------------------------|

CHORUS (2st chorus)
(distortion)
-----------------------------------------------|
-----------------------------------------------|
-----------------------------------------------|
-3-5-7-5-3-3-5-7-5-3-3-5-7-5-3-3-5-7-5-3-7-5-3-|
-1-3-5-3-1-1-3-5-3-1-1-3-5-3-1-1-3-5-3-1-5-3-1-|
-----------------------------------------------|

BRIDGE (x6)
(wah pedal)
(clean)
m- mute strumming

-m666m-6-8-10-8-6-6---------------------|
-m666m-6-8-10-8-6-6---------------------|
-m777m-7-8-10-8-7-7---------------------|
----------------------------------------|
----------------------------------------|
----------------------------------------|

OUTRO
(clean)
h- hammer on
H- hammer off
s- slide
/- bend

---------------------------0-1-3-1-0----|
-6h8-8s10-10s11-10-8-6-5-3-2-3---3------|
-7------------------------2-------------|
----------------------------------------|
----------------------------------------|
----------------------------------------|

10-12-13-13-13-12-10-------------------------6-13-10-------------------------|
--------------------10-10h11-10-------------6-------10-----------------------|
-------------------------------12-10-9-7-6-7----------10-10-9h10--9-10-12-10-|
--------------------------------------------------------12-------12----------|
-----------------------------------------------------------------------------|
-----------------------------------------------------------------------------|

-------------10-12-13-15s17-17-18-17-15-17-18-20-18-17-18-20-18-17-15-17-15-|
-----10-11-13---------------------------------------------------------------|
12s14-----------------------------------------------------------------------|
----------------------------------------------------------------------------|
----------------------------------------------------------------------------|
----------------------------------------------------------------------------|

13-15-13-12-13-12-10-p-------------------------------------------------------|
---------------------p-----------------------------10h11-10h11--10-11-10-11--|
---------------------p-7-6-7-9-7-9-10-9-10-12-10-12-----------12-------------|
---------------------p-------------------------------------------------------|
---------------------p-------------------------------------------------------|
---------------------p-------------------------------------------------------|

--9---------10--9-12-10-p---------------------------------------------------|
----11-10-11--11--------p-11-10h11--------------5-6-8-6-5-------------------|
------------------------p---------12-10-9-7-6-7-----------7-6-----6-7-9-10--|
------------------------p-------------------------------------7-8-----------|
------------------------p---------------------------------------------------|
------------------------p---------------------------------------------------|

----------------------------------------|
----------------------------------------|
--9h10-7--------------------------------|
----------------------------------------|
----------------------------------------|
----------------------------------------|
then plucking with the same chords as the intro....

tnx to all who have inspired me play...G0D, my family, bea, friends/classmates, NU 107!
support our band freefall/ support our song tightrope!
[email protected] (friendster account) \m/
please rate my tab
 
 
Parokya Ni Edgar - Absorbing Man :: indexed at Ultimate Guitar.
Absorbing Man tabs @ 911Tabs

Quick tip, so you can enjoy Absorbing Man even more:

Try out the AutoScroller option ... It scrolls the page for you, so you can totally focus on nailing that solo. You can choose among different speeds using your mouse or your keyboard (keys 0, 1, 2 and 3).

Show us your talent, perform Absorbing Man!

Here you can post a video or audio performance. Tell me more ...
Where can we find your performance? Tell me more ...
Your comment:
Please, log in to post your performance.