Artists by letter: A B C D E F G H I J K L M N O P Q R S T U V W X Y Z 0-9

 
Use Somebody
-------------------------------------------------------------------------------
               Use Somebody - Paramore (Kings of Leon Cover)
-------------------------------------------------------------------------------
Tabbed by: BroJayBass
E-mail: [email protected]

Tuning: Standard / Capo 1

They played it half-step down capo 2, but for the purposes of the tab and not having to down tune, it's in 
standard.

INTRO:

Guitar 1
e|--------------------------|   |-------------------------|
B|--------------------------|   |--1-------1--------------|
G|--9--------9--------2-----|   |--2-------0--------2-----|
D|--10-x8----10-x8----3-x16-|x2 |--2-x8----2--x8----3-x16-|x2
A|--10-------10-------3-----|   |--0-------3--------3-----|
E|--8--------0--------1-----|   |-------------------1-----|

Guitar 2
e|--3-----------------3-----|   |--3----------------3-----|
B|--5-----------------3-----|   |--5----------------3-----|
G|--5-x16-------------5-x16-|x2 |--5-x16------------5-x16-|x2
D|--5-----------------3-----|   |--5----------------3-----|
A|--3-----------------3-----|   |--3----------------3-----|
E|--------------------------|   |-------------------------|


VERSE 1:

Guitar 1
e|--------------------------|   |-------------------------|
B|--------------------------|   |--1-------1--------------|
G|--9--------9--------2-----|   |--2-------0--------2-----|
D|--10-x8----10-x8----3-x16-|x2 |--2-x8----2--x8----3-x16-|x2 
A|--10-------10-------3-----|   |--0-------3--------3-----|
E|--8--------0--------1-----|   |-------------------1-----|

Guitar 2
e|--------------------------|   |-------------------------|
B|--------------------------|   |-------------------------|
G|----------REST------------|   |---------REST------------|
D|--------------------------|x2 |-------------------------|x2
A|--------------------------|   |-------------------------|
E|--------------------------|   |-------------------------|

Guitar 1
e|--------------------------|   |-------------------------|
B|--------------------------|   |--1-------1--------------|
G|--9--------9--------2-----|   |--2-------0--------2-----|
D|--10-x8----10-x8----3-x16-|x2 |--2-x8----2--x8----3-x16-|x2
A|--10-------10-------3-----|   |--0-------3--------3-----|
E|--8--------0--------1-----|   |-------------------1-----|

Guitar 2
e|-------------------------|--------------------------|----|
B|-------------------------|--------------------------|----|
G|--------5--------5-------|---------5--------5-------|----|
D|-----5--------5--------5-|x2----5--------5--------5-|x2--|x4
A|--5--------5--------5----|---3--------3--------3----|----|
E|-------------------------|--------------------------|----|

CHORUS: (Repeat Intro)

VERSE 2:

Guitar 1                         P.M.- - - - - - - - - - -
e|--------------------------|   |-------------------------|
B|--------------------------|   |--1-------1--------------|
G|--9--------9--------2-----|   |--2-------0--------2-----|
D|--10-x8----10-x8----3-x16-|x2 |--2-x8----2--x8----3-x16-|x2
A|--10-------10-------3-----|   |--0-------3--------3-----|
E|--8--------0--------1-----|   |-------------------1-----|

Guitar 2
 (Faint, but listen for timing) P.M.- - - - - - - - - - - - (1-2-3 1-2-3 1-2)
e|-------------------------|    |----------------------------------|
B|-------------------------|    |----------------------------------|
G|--------5-----------5----|    |----------------------------------|
D|-----5-----------5-------|    |----------------------------------|x2
A|--5-----------3----------|    |--7(x8)-7(x3)-10(x3)-8(x2)-3(x16)-|
E|-------------------------|    |----------------------------------|

CHORUS: (Repeat Intro)

BRIDGE:

Guitar 1
e|-----------------|
B|-----------------|
G|--7--------------|
D|--7-x16----4-----|x2
A|--5--------4-x16-|
E|-----------2-----|

Guitar 2
e|---------------------------------------------------------------------------|
B|---------------------------------------------------------------------------|
G|---------------------------------------------------------------------------|
D|---------------------------------------------------------------------------|
A|--9(x16)----4(x16)----9(x16)----4(x8)--4(x8 while progressively bending)---|
E|---------------------------------------------------------------------------|

SOLO:

Guitar 1
e|--------------------------|   |-------------------------|
B|--------------------------|   |--1-------1--------------|
G|--9--------9--------2-----|   |--2-------0--------2-----|
D|--10-x8----10-x8----3-x16-|x2 |--2-x8----2--x8----3-x16-|x2
A|--10-------10-------3-----|   |--0-------3--------3-----|
E|--8--------0--------1-----|   |-------------------1-----|

Guitar 2
e|-------------------------------------------|   |---------------------------------|
B|-------------------------------------------|   |---------------------------------|
G|--9-----11-----5-----10-----9-----9---7--5-|   |--9-----11-----5-----10-----9--5-|
D|--x(x3)-x-(x5)-x(x3)-x-(x5)-x(x6)-x---x--x-|x3 |--x(x3)-x-(x5)-x(x3)-x-(x3)-x--x-|
A|--7-----9------3-----8------7-----7br-5--3-|   |--7-----9------3-----8------7--3-|
E|-------------------------------------------|   |---------------------------------|

OUTRO:

Guitar 1
e|----------------------|
B|----------------------|
G|--9--------9--------2-|
D|--10-x3----10-x3----3-|
A|--10-------10-------3-|
E|--8--------0--------1-|

Guitar 2
e|----------------------|
B|----------------------|
G|--------REST----------|
D|----------------------|
A|----------------------|
E|----------------------|



************************************

| /   slide up
| \   slide down
| h   hammer-on
| p   pull-off
| ~   vibrato
| +   harmonic
| x   Mute note
| b   Bend
| pb  Pre-bend
| br  Bend release
| pbr Pre-bend release
| brb Bend release bend

************************************
 
 
Paramore - Use Somebody :: indexed at Ultimate Guitar.
Use Somebody tabs @ 911Tabs

About the artist behind Use Somebody:

Paramore (IPA: /'pærəmɔər/) is an American rock band that formed in Franklin, Tennessee in 2004 consisting of Hayley Williams (lead vocals/keyboard), Josh Farro (lead guitar/backing vocals), Jeremy Davis (bass guitar), and Zac Farro (drums). The group released their debut album All We Know Is Falling in 2005, and their second album Riot! in 2007, which was certified gold in the US and the UK.

Indexed at Wikipedia.

Show us your talent, perform Use Somebody!

Here you can post a video or audio performance. Tell me more ...
Where can we find your performance? Tell me more ...
Your comment:
Please, log in to post your performance.