Artists by letter: A B C D E F G H I J K L M N O P Q R S T U V W X Y Z 0-9

 
Proof
Intro + Verse (Justin York)
e|--------------------------------------------------------------------------|
B|--------------------------------------------------------------------------|
G|--------------------------------------------------------------------------| 
D|--------------------------------------------------------------------------|
A|--------------------------------------------------------------------------|
D|-1-1-1-1-1-1-1-1-1-1-1-1-1-1-1-1-3-3-5-5-5-5-5-8-8-10-10-10-10-10-10-8-8--|

e|---------------------------------------------------|
B|---------------------------------------------------|
G|---------------------------------------------------|
D|-5---3----8----1-----------------------------------|
A|-5---3----8----1-----------------------------------|
D|-5---3----8----1-----------------------------------|

Over here
You can count the miles away from where I wanna be
I bet your skin is warm and that you're smiling
Yea, that's what I always loved the most about you
You're so strong, come and knock me down, hey! 

Chorus
e|---------------------------------------------------|
B|---------------------------------------------------|
G|---------------------------------------------------|
D|-6-6-8-8-1-1-1-1-----------------------------------|
A|-6-6-8-8-1-1-1-1-----------------------------------|
D|-6-6-8-8-1-1-1-1-----------------------------------|

e|---------------------------------------------------|
B|---------------------------------------------------|
G|---------------------------------------------------|
D|-6-6-8-8-1-1-1-1-----------------------------------|
A|-6-6-8-8-1-1-1-1-----------------------------------|
D|-6-6-8-8-1-1-1-1-----------------------------------|

e|---------------------------------------------------|
B|---------------------------------------------------|
G|---------5-7-8-------------------------------------|
D|-6-6-8-8-5-7-8-8-6-6-8-8---------------------------|
A|-6-6-8-8-3-5-6-8-6-6-8-8---------------------------|
D|-6-6-8-8-------8-6-6-8-8---------------------------|

e|------------------|
B|------------------|
G|------------------| 
D|------------------|
A|------------------|
D|-1-1-1-3----------|


Verse 
e|--------------------------------------------------------------------------|
B|--------------------------------------------------------------------------|
G|--------------------------------------------------------------------------| 
D|--------------------------------------------------------------------------|
A|--------------------------------------------------------------------------|
D|-1-1-1-1-1-1-1-1-1-1-1-1-1-1-1-1-3-3-5-5-5-5-5-8-8-10-10-10-10-10-10-8-8--|

e|------------------|
B|------------------|
G|------------------| 
D|------------------|
A|------------------|
D|-1-1-1-3/10-------|



Chorus
e|---------------------------------------------------|
B|---------------------------------------------------|
G|---------------------------------------------------|
D|-6-6-8-8-1-1-1-1-----------------------------------|
A|-6-6-8-8-1-1-1-1-----------------------------------|
D|-6-6-8-8-1-1-1-1-----------------------------------|

e|---------------------------------------------------|
B|---------------------------------------------------|
G|---------------------------------------------------|
D|-6-6-8-8-1-1-1-1-----------------------------------|
A|-6-6-8-8-1-1-1-1-----------------------------------|
D|-6-6-8-8-1-1-1-1-----------------------------------|

e|---------------------------------------------------|
B|---------------------------------------------------|
G|---------5-7-8-------------------------------------|
D|-6-6-8-8-5-7-8-8-6-6-8-8---------------------------|
A|-6-6-8-8-3-5-6-8-6-6-8-8---------------------------|
D|-6-6-8-8-------8-6-6-8-8---------------------------|


Bridge
e|------------------------------------------|
B|------------------------------------------|
G|---8-8/--8-8/--8-8/--8-8/-----------------|
D|---8-8/--8-8/--8-8/--8-8/-----------------|
A|---6-6/--6-6/--6-6/--6-6/-----------------|
D|------------------------------------------|
e|-------------------------------------------|
B|-------------------------------------------|
G|--5-5/--5-5/-------------------------------|
D|--5-5/--5-5/-------------------------------|
A|--3-3/--3-3/-------------------------------|
D|-------------------------------------------|

e|-------------------------------------------|
B|-------------------------------------------|
G|-------------------------------------------|
D|--8-8/--8-8/--6-6/--6-6/--6-6/--6-6/-------|
A|--8-8/--8-8/--6-6/--6-6/--6-6/--6-6/-------|
D|--8-8/--8-8/--6-6/--6-6/--6-6/--6-6/-------|

e|--------------------------------------------|
B|---------------------------------------------|
G|--5-5/--5-5/---------------------------------|
D|--5-5/--5-5/--8/-----------------------------|
A|--3-3/--3-3/--8/-----------------------------|
D|--------------8/-----------------------------|

e|------------------------------------------|
B|------------------------------------------|
G|---8-8/--8-8/--8-8/--8-8/-----------------|
D|---8-8/--8-8/--8-8/--8-8/-----------------|
A|---6-6/--6-6/--6-6/--6-6/-----------------|
D|------------------------------------------|

e|-------------------------------------------|
B|-------------------------------------------|
G|--5-5/--5-5/-------------------------------|
D|--5-5/--5-5/-------------------------------|
A|--3-3/--3-3/-------------------------------|
D|-------------------------------------------|

e|-------------------------------------------|
B|-------------------------------------------|
G|-------------------------------------------|
D|--8-8/--8-8/--6-6/--6-6/--6-6/--6-6/-------|
A|--8-8/--8-8/--6-6/--6-6/--6-6/--6-6/-------|
D|--8-8/--8-8/--6-6/--6-6/--6-6/--6-6/-------|

e|-------------------------------------------|
B|-------------------------------------------|
G|--5-5/--5-5/-------------------------------|
D|--5-5/--5-5/-------------------------------|
A|--3-3/--3-3/-------------------------------|
D|-------------------------------------------|

e|-------------------------------------------|
B|-------------------------------------------|
G|-------------------------------------------|
D|--8-8/--8-8/--6-6/--6-6/--6-6/--6-6/-------|
A|--8-8/--8-8/--6-6/--6-6/--6-6/--6-6/-------|
D|--8-8/--8-8/--6-6/--6-6/--6-6/--6-6/-------|


e|--------------------------------------------------|
B|--------------------------------------------------|
G|--5-5/--5-5/--------------------------------------|
D|--5-5/--5-5/--8-8/--8-8/--------------------------|
A|--3-3/--3-3/--8-8/--8-8/--------------------------|
D|--------------8-8/--8-8/--------------------------|

Chorus
e|---------------------------------------------------|
B|---------------------------------------------------|
G|---------------------------------------------------|
D|-6-6-8-8-1-1-1-1-----------------------------------|
A|-6-6-8-8-1-1-1-1-----------------------------------|
D|-6-6-8-8-1-1-1-1-----------------------------------|

e|---------------------------------------------------|
B|---------------------------------------------------|
G|---------------------------------------------------|
D|-6-6-8-8-1-1-1-1-----------------------------------|
A|-6-6-8-8-1-1-1-1-----------------------------------|
D|-6-6-8-8-1-1-1-1-----------------------------------|

e|---------------------------------------------------|
B|---------------------------------------------------|
G|---------5-7-8-------------------------------------|
D|-6-6-8-8-5-7-8-8-6-6-8-8---------------------------|
A|-6-6-8-8-3-5-6-8-6-6-8-8---------------------------|
D|-6-6-8-8-------8-6-6-8-8---------------------------|


[Verse]-Lead (Taylor York)
e|---------------------------------------------------------------------------|
B|--------------------------13-13--------------------------------------------|
G|---12--15--12---------------------12--15~---12--15--12-----------12\-------|
D|---------------15--13~----------------------------------15--13--------15---|
A|---------------------------------------------------------------------------|
D|---------------------------------------------------------------------------|
(Random slide during verse)

e|-----------------------|
B|-------8-8-------------|
G|-------x-x-------------|
D|-------6-6-------------|
A|-----------------------|
D|-----------------------| ou 

e|-----11----------------|
B|-----11----------------|
G|---8-------------------|
D|-----------------------|
A|-----------------------|
D|-----------------------|

Chorus
e|--------------------------------------------13--15-------------------------|
B|---13--11--------13--11---------13--15--16----------15---13--15------------|
G|-----------12--------------------------------------------------------------|
D|-------------------------13------------------------------------------------|
A|---------------------------------------------------------------------------|
D|---------------------------------------------------------------------------|


Verse
(Random slide during verse)
e|-----------------------|
B|-------8-8-------------|
G|-------x-x-------------|
D|-------6-6-------------|
A|-----------------------|
D|-----------------------|


[Verse]-Lead 4x
e|---------------------------------------------------------------------------|
B|--------------------------13-13--------------------------------------------|
G|---12--15--12---------------------12--15~---12--15--12-----------12\-------|
D|---------------15--13~----------------------------------15--13--------15---|
A|---------------------------------------------------------------------------|
D|---------------------------------------------------------------------------|

Chorus
e|--------------------------------------------13--15-------------------------|
B|---13--11--------13--11---------13--15--16----------15---13--15------------|
G|-----------12--------------------------------------------------------------|
D|-------------------------13------------------------------------------------|
A|---------------------------------------------------------------------------|
D|---------------------------------------------------------------------------|

Brigter


e|-------------------------------------------|
B|-------8-8/--8-8/--8-8/--8-8/--8-8/--8-8---|
G|-------8-8/--8-8/--8-8/--8-8/--8-8/--8-8---|
D|-------------------------------------------|
A|-------------------------------------------|
D|-------------------------------------------|

e|---------------------------------------|
B|---6-6/--6-6/--------------------------|
G|---8-6/--8-8/--------------------------|
D|---------------------------------------|
A|---------------------------------------|
D|---------------------------------------|


e|-------------------------------------------|
B|-------8-8/--8-8/--8-8/--8-8/--8-8/--8-8---|
G|-------8-8/--8-8/--8-8/--8-8/--8-8/--8-8---|
D|-------------------------------------------|
A|-------------------------------------------|
D|-------------------------------------------|

e|---------------------------------------|
B|---6-6/--6-6/--------------------------|
G|---8-6/--8-8/--------------------------|
D|---------------------------------------|
A|---------------------------------------|
D|---------------------------------------|

e|-------------------------------------------|
B|-------8-8/--8-8/--8-8/--8-8/--8-8/--8-8---|
G|-------8-8/--8-8/--8-8/--8-8/--8-8/--8-8---|
D|-------------------------------------------|
A|-------------------------------------------|
D|-------------------------------------------|


Bridge Lead
e|---------11--10------------------------------------------------------------|
B|----------------11--------8-----------------8-----8----11------------------|
G|--8------------------10----------8-----10------8---------------------------|
D|---------------------------------------------------------------------------|
A|---------------------------------------------------------------------------|
D|---------------------------------------------------------------------------|

e|---------11--10-----------------------------------------------|
B|----------------11--------8-----------------------------------|
G|--8------------------10----------8-----10---------------------|
D|--------------------------------------------------------------|
A|--------------------------------------------------------------|
D|--------------------------------------------------------------|

Chorus
e|--------------------------------------------13--15-------------------------|
B|---13--11--------13--11---------13--15--16----------15---13--15------------|
G|-----------12--------------------------------------------------------------|
D|-------------------------13------------------------------------------------|
A|---------------------------------------------------------------------------|
D|---------------------------------------------------------------------------|

 
 
Paramore - Proof :: indexed at Ultimate Guitar.
Proof tabs @ 911Tabs

About the artist behind Proof:

Paramore (IPA: /'pærəmɔər/) is an American rock band that formed in Franklin, Tennessee in 2004 consisting of Hayley Williams (lead vocals/keyboard), Josh Farro (lead guitar/backing vocals), Jeremy Davis (bass guitar), and Zac Farro (drums). The group released their debut album All We Know Is Falling in 2005, and their second album Riot! in 2007, which was certified gold in the US and the UK.

Indexed at Wikipedia.

Show us your talent, perform Proof!

Here you can post a video or audio performance. Tell me more ...
Where can we find your performance? Tell me more ...
Your comment:
Please, log in to post your performance.