Artists by letter: A B C D E F G H I J K L M N O P Q R S T U V W X Y Z 0-9

 
My Heart
-------------------------------------------------------------------------------
                            My Heart - Paramore
-------------------------------------------------------------------------------
This is my first tab, I know that this ain't perfect but you know, I'm trying my
hardest.
Put your comments or suggestions or questions below and I'll try to answer them.

Tuning: Standard Tuning :)) EADGBe
Do rely on this
It took me 5 hours just to tab this :')
https://www.youtube.com/watch?v=NpEGO2p2MIU so we could work together
(The youtube channel isn't mine, I just found it.)
Okay? :))


Intro (0:00- 0:21)
Lead Guitar
e|-7---------7--------------------------------7----------------------7---7---|
B|----9---9-----7--7--7h9--9---9---9---9---9-----9---9---7---7---7-----------|
G|--9---9--9--9--9--9----9---9---9---9---9--9--9---9---9---9---9---9---9---9-|
D|---------------------------------------------------------------------------|
A|---------------------------------------------------------------------------|
E|---------------------------------------------------------------------------|

7---7---7---7---7-----------7------------------------------------------|
--------------------9---9-------7---7---7h9---9---9---9---9---9---9----|
--9---9---9---9---9---9---9---9---9---9-----9---9---9---9---9---9---9--|
-----------------------------------------------------------------------|
-----------------------------------------------------------------------|
-----------------------------------------------------------------------|

-7------------------------------------------|
-----9---9---7---7--7--5--------------------|
---9---9---9---9--9--9----------------------|
--------------------------------------------|
--------------------------------------------|
--------------------------------------------|
Rhythm Guitar(0:00-0:21)
e|--------------------------------------------------------------------|
B|-------------------------5-5-5--------------------------------------|
G|-1-1-1-1-1-1-2-2-2-2-2-2-6-6-6-------2-2-2-2-2-2--------------------|
D|-2-2-2-2-2-2-2-2-2-2-2-2-6-6-6-6-6-6-2-2-2-2-2-2--------------------|
A|-2-2-2-2-2-2-------------4-4-4-6-6-6--------------------------------|
E|-------------------------------4-4-4--------------------------------|

e|--------------------------------------------------------------------|
B|-------------------------5-5-5--------------------------------------|
G|-1-1-1-1-1-1-2-2-2-2-2-2-6-6-6-------2------------------------------|
D|-2-2-2-2-2-2-2-2-2-2-2-2-6-6-6-6-6-6-2------------------------------|
A|-2-2-2-2-2-2-------------4-4-4-6-6-6--------------------------------|
E|-------------------------------4-4-4--------------------------------|

Verse 1:
I dunno what's the Lead doing in the 1st Verse. :-/ Help?

Rhythm Guitar
e|---------------------------------------------------------------------------|
B|-5-5-5---------------------------------------------------------------------|
G|-6-6-6-4-4-4-2-2-2-2-2-2---------------------------------------------------|
D|-6-6-6-4-4-4-2-2-2-2-2-2---------------------------------------------------|5x
A|-4-4-4-2-2-2---------------------------------------------------------------|
E|---------------------------------------------------------------------------|

e|---------------------------------------------------------------------------|
B|-5-5-5---------------------------------------------------------------------|
G|-6-6-6-4-4-4-2-------------------------------------------------------------|
D|-6-6-6-4-4-4-2-------------------------------------------------------------|
A|-4-4-4-2-2-2---------------------------------------------------------------|
E|---------------------------------------------------------------------------|
 The Chorus/Intro tab goes with the Lead guitar and The Rhythm
and After that the verse again but

Lead guitar comes in (1:24-1:34)
e|---7----------7-------------------------------------------|
B|------9---9-------7---7---7h9---9---9---9---9---9---9-----|
G|-9--9---9---9---9---9---9-----9---9---9---9---9---9---9---|
D|----------------------------------------------------------|
A|----------------------------------------------------------|
E|----------------------------------------------------------|

-7------------------------------------------|
-----9---9---7---7--7--5--------------------|
---9---9---9---9--9--9----------------------|
--------------------------------------------|
--------------------------------------------|
--------------------------------------------|
and then a pause after "The sound of my only hope" and the
LEAD GUITAR Enters enters again together with the rhythm (1:34- 1:45)

e|-7---------7--------------------------------7----------------------7---7----|
b|----9---9-----7--7--7h9--9---9---9---9---9-----9---9---7---7---7------------|
G|--9---9--9--9--9--9----9---9---9---9---9--9--9---9---9---9---9---9---9---9--|
D|----------------------------------------------------------------------------|
A|----------------------------------------------------------------------------|
E|----------------------------------------------------------------------------|

e|7---7---7---7---7-|
B|------------------|
G|--9---9---9---9---|
D|------------------|
A|------------------|
E|------------------|

Rhythm Guitar
 Verse 2
e|---------------------------------------------------------------------------|
B|-5-5-5---------------------------------------------------------------------|
G|-6-6-6-4-4-4-2-2-2-2-2-2---------------------------------------------------|
D|-6-6-6-4-4-4-2-2-2-2-2-2---------------------------------------------------|3x
A|-4-4-4-2-2-2---------------------------------------------------------------|
E|---------------------------------------------------------------------------|


e|---------------------------------------------------------------------------|
B|-5-5-5---------------------------------------------------------------------|
G|-6-6-6-4-4-4-2-------------------------------------------------------------|
D|-6-6-6-4-4-4-2-------------------------------------------------------------|
A|-4-4-4-2-2-2---------------------------------------------------------------|
E|---------------------------------------------------------------------------|

and pauses at the same time as the Lead guitar did. And continue again as I have said.


Then, the Chorus again. .\.(-_-)./.

Lead Guitar CHORUS (1:45- 2:05)
e|-7---------7--------------------------------7----------------------7---7---|
B|----9---9-----7--7--7h9--9---9---9---9---9-----9---9---7---7---7-----------|
G|--9---9--9--9--9--9----9---9---9---9---9--9--9---9---9---9---9---9---9---9-|
D|---------------------------------------------------------------------------|
A|---------------------------------------------------------------------------|
E|---------------------------------------------------------------------------|

e|7---7---7---7---7-----------7--------------------------------------------|
B|--------------------9---9-------7---7---7h9---9---9---9---9---9---9------|
G|--9---9---9---9---9---9---9---9---9---9-----9---9---9---9---9---9---9----|
D|-------------------------------------------------------------------------|
A|-------------------------------------------------------------------------|
E|-------------------------------------------------------------------------|

e|-7------------------------------------------|
B|-----9---9---7---7--7--5--------------------|
G|---9---9---9---9--9--9----------------------|
D|--------------------------------------------|
A|--------------------------------------------|
E|--------------------------------------------|

Rhythm Guitar CHORUS (1:45- 2:05)
e|--------------------------------------------------------------------|
B|-------------------------5-5-5--------------------------------------|
G|-1-1-1-1-1-1-2-2-2-2-2-2-6-6-6-------2-2-2-2-2-2--------------------|
D|-2-2-2-2-2-2-2-2-2-2-2-2-6-6-6-6-6-6-2-2-2-2-2-2--------------------|
A|-2-2-2-2-2-2-------------4-4-4-6-6-6--------------------------------|
E|-------------------------------4-4-4--------------------------------|

e|--------------------------------------------------------------------|
B|-------------------------5-5-5--------------------------------------|
G|-1-1-1-1-1-1-2-2-2-2-2-2-6-6-6-------2------------------------------|
D|-2-2-2-2-2-2-2-2-2-2-2-2-6-6-6-6-6-6-2------------------------------|
A|-2-2-2-2-2-2-------------4-4-4-6-6-6--------------------------------|
E|-------------------------------4-4-4--------------------------------|

Then The LEAD GUITAR enters while the RHYTHM PLAYS

Lead Guitar Outro (2:11, 2:21, 2:32)

e|----7---------------------------------------------------------------|
B|-9-7--7-9-----------------------------------------------------------| 3x I guess
G|--------------------------------------------------------------------|
D|--------------------------------------------------------------------|
A|--------------------------------------------------------------------|
E|--------------------------------------------------------------------|

Rhythm Guitar Outro (2:10)
e|---------------------------------------------------------------------------|
B|-5-5-5-5-5-5---------------------------------------------------------------|
G|-6-6-6-6-6-6-1-1-1-1-1-1-2-2-2-2-2-2---------------------------------------|
D|-6-6-6-6-6-6-2-2-2-2-2-2-2-2-2-2-2-2---------------------------------------|
A|-4-4-4-4-4-4-2-2-2-2-2-2---------------------------------------------------|
E|---------------------------------------------------------------------------|


Lead Guitar at (2:29)

e|-------------------7------------------------------------------------|
B|-9-7-9-9-7-9-9-7-9--7-9---------------------------------------------|
G|--------------------------------------------------------------------|
D|--------------------------------------------------------------------|
A|--------------------------------------------------------------------|
E|--------------------------------------------------------------------|

I'm too lazy to count how many times did the lead play like this. >:)


Rhythm Guitar at(2:29)
e|---------------------------------------------------------------------------|
B|-5-5-5-5-5-5---------------------------------------------------------------|
G|-6-6-6-6-6-6-1-1-1-1-1-1-2-2-2-2-2-2-4-4-4-4-4-4-4-------------------------|
D|-6-6-6-6-6-6-2-2-2-2-2-2-2-2-2-2-2-2-4-4-4-4-4-4-4-------------------------|
A|-4-4-4-4-4-4-2-2-2-2-2-2-------------2-2-2-2-2-2-2-------------------------|
E|---------------------------------------------------------------------------|


e|----------------------------|
B|----------------------------|
G|--4-------------------------|
D|--4-------------------------|
A|--2-------------------------|
E|----------------------------|

(-_-) it's 1: 35 am WTF is wrong with me?


./.

************************************

| /   slide up
| \   slide down
| h   hammer-on
| p   pull-off
| ~   vibrato
| +   harmonic
| x   Mute note
| b   Bend
| pb  Pre-bend
| br  Bend release
| pbr Pre-bend release
| brb Bend release bend

************************************
 
 
Paramore - My Heart :: indexed at Ultimate Guitar.
My Heart tabs @ 911Tabs

About the artist behind My Heart:

Paramore (IPA: /'pærəmɔər/) is an American rock band that formed in Franklin, Tennessee in 2004 consisting of Hayley Williams (lead vocals/keyboard), Josh Farro (lead guitar/backing vocals), Jeremy Davis (bass guitar), and Zac Farro (drums). The group released their debut album All We Know Is Falling in 2005, and their second album Riot! in 2007, which was certified gold in the US and the UK.

Indexed at Wikipedia.

Show us your talent, perform My Heart!

Here you can post a video or audio performance. Tell me more ...
Where can we find your performance? Tell me more ...
Your comment:
Please, log in to post your performance.