Artists by letter: A B C D E F G H I J K L M N O P Q R S T U V W X Y Z 0-9

 
Misery Business
Paramore " Misery Business tab (rhythm guitarist) by Migdet17
Contact info: [email protected]

This is my first tab to be nice I hope u like it x

Drop D
Chords used: 
INTRO & VERSES: F,Eb,C#,G#,G
CHORUS: F,G#,Eb,C#,C,

H = hammer on
. = palm mute

Intro:

e|----------------------|--------------------------|--------------------------------|
B|----------------------|--------------------------|--------------------------------|
G|----------------------|------------------66"-666-|--------------------------------|
D|-33-3---------11"-111-|-1--33-3----------66"-666-|-33-3---------11"-111--1-33-3---|
A|-33-3"1h3-1h3-11--111-|-1--33-3"1h3-1h3"-44"-444-|-33-3"1h3-1h3-11"-111"-1-33-3---|
D|-33-3---------11--111-|-1--33-3--------------"---|-33-3---------11"-111"-1-33-3---|
   .. . . . . . ..  ...   .  .. . . . . .  ..  ...   .. . . . . . ..  ...  . .. .   
            (^fret one)                 (and again fret 1^ &  ^ u get the picture)
e|----------------------|
B|-----------------1h3--|
G|--------------1h3-----|
D|-----------1h3--------|
A|-1h3-1h3--------------|
D|----------------------|

Verse:

e|----------------------|--------------------------|---------------------------------|
B|----------------------|--------------------------|---------------------------------|
G|----------------------|------------------66"-666-|---------------------------------|
D|-33-3---------11"-111-|-1--33-3----------66"-666-|-33-3---------11"-111--1---33-3--|
A|-33-3"1h3-1h3-11--111-|-1--33-3"1h3-1h3"-44"-444-|-33-3"1h3-1h3-11"-111"-1---33-3--|
D|-33-3---------11--111-|-1--33-3--------------"---|-33-3---------11"-111"-1---33-3--|
   .. . . . . . ..  ...   .  .. . . . . .  ..  ...   .. . . . . . ..  ...  .   .. .
     Fret one^                                        and again^
e|----------------------|--------------------------|------------------------------------|
B|----------------------|--------------------------|------------------------------------|
G|----------------------|--------------------------|--------66"-666---------------------|
D|-----------6-5--33-3--|---------11"-111--1-33-3--|--------66"-666"-33-3---------11-111|
A|-1h3"1h3---6-5--33-3--|-1h3-1h3-11"-111--1-33-3--|1h3-1h3-44--444"-33-3-1h3-1h3-11-111|
D|-----------6-5--33-3--|---------11"-111--1-33-3--|-----------------33-3---------11-111|
   . . . .   . .  .. .    . . . . ..  ...  . .. .   . . . . ..  ...  .. . . . . . .. ...
e|--------------------------------------|
B|--------------------------------------|
G|--------------------------------------|
D|-1"33-3----------6-5--33333333-11111--|
A|-1-33-3-1h3-1h3"-6-5--33333333-11111--|
D|-1-33-3----------6-5--33333333-11111--|     
   . .. . . . . .  . .  ........ .....

Chorus: 
      
e|--------------------------------------|  |-------------------------------------------|
B|--------------------------------------|  |-------------------------------------------|
G|----------------------------6666-5555-|  |-------------------------------------------|
D|-3-3-3333-6-6-6666-1-1-1111-6666-5555-|x2|---33333333"-11111111"-33333333"-11111111--|
A|-3-3-3333-6-6-6666-1-1-1111-4444-3333-|  |---33333333"-11111111"-33333333"-11111111--|
D|-3-3-3333-6-6-6666-1-1-1111-----------|  |---33333333"-11111111"-33333333"-11111111--|
   . . .... . . .... . . .... .... ....        ........  ........  ........  ........



e|----------------------|-------------------------|
B|----------------------|-------------------------|
G|----------------------|------------------66"66--|
D|-33-3---------11"-111-|-1--33-3----------66"66--|
A|-33-3"1h3-1h3-11--111-|-1--33-3"1h3-1h3"-44"44--|
D|-33-3---------11--111-|-1--33-3-----------"-----|
   .. . . . . . ..  ...   .  .. . . . . .  .. ..

Verse again:

e|----------------------|--------------------------|------------------------------------|
B|----------------------|--------------------------|------------------------------------|
G|----------------------|------------------66"-666-|------------------------------------|
D|-33-3---------11"-111-|-1--33-3----------66"-666-|-33-3---------11"-111--1---33-3-----|
A|-33-3"1h3-1h3-11--111-|-1--33-3"1h3-1h3"-44"-444-|-33-3"1h3-1h3-11"-111"-1---33-3-----|
D|-33-3---------11--111-|-1--33-3--------------"---|-33-3---------11"-111"-1---33-3-----|
   .. . . . . . ..  ...   .  .. . . . . .  ..  ...   .. . . . . . ..  ...  .   .. .     
e|----------------------|--------------------------|------------------------------------|
B|----------------------|--------------------------|------------------------------------|
G|----------------------|--------------------------|--------66"-666---------------------|
D|-----------6-5--33-3--|---------11"-111--1-33-3--|--------66"-666"-33-3---------11-111|
A|-1h3"1h3---6-5--33-3--|-1h3-1h3-11"-111--1-33-3--|1h3-1h3-44--444"-33-3-1h3-1h3-11-111|
D|-----------6-5--33-3--|---------11"-111--1-33-3--|-----------------33-3---------11-111|
   . . . .   . .  .. .    . . . . ..  ...  . .. .   . . . . ..  ...  .. . . . . . .. ...
e|--------------------------------------|
B|--------------------------------------|
G|--------------------------------------|
D|-1"33-3----------6-5--33333333-11111--|
A|-1-33-3-1h3-1h3"-6-5--33333333-11111--|
D|-1-33-3----------6-5--33333333-11111--|     
   . .. . . . . .  . .  ........ .....

Chorus: 
      
e|--------------------------------------|  |-------------------------------------------|
B|--------------------------------------|  |-------------------------------------------|
G|----------------------------6666-5555-|  |-------------------------------------------|
D|-3-3-3333-6-6-6666-1-1-1111-6666-5555-|x2|---33333333"-11111111"-33333333"-11111111--|
A|-3-3-3333-6-6-6666-1-1-1111-4444-3333-|  |---33333333"-11111111"-33333333"-11111111--|
D|-3-3-3333-6-6-6666-1-1-1111-----------|  |---33333333"-11111111"-33333333"-11111111--|
   . . .... . . .... . . .... .... ....        ........  ........  ........  ........
e|---------------------|
B|--4---4-----4-4-3----|
G|-5-5-5-5-3-5-3-3-3---|
D|3---6----------------| < (repeat 2 times then repeat this riff 2 times in the bridge)
A|---------------------|
D|---------------------|

Interlude:

e|--------------------------------------|--------------------------------------|
B|--------------------------------------|--------------------------------------|
G|----------------------------6666-5555-|----------------------------6666-5555-|   
D|-3-3-3333-6-6-6666-1-1-1111-6666-5555-|-3-3-3333-6-6-6666-1-1-1111-6666-5555-|
A|-3-3-3333-6-6-6666-1-1-1111-4444-3333-|-3-3-3333-6-6-6666-1-1-1111-4444-3333-|   
D|-3-3-3333-6-6-6666-1-1-1111-----------|-3-3-3333-6-6-6666-1-1-1111-----------|  
   . . .... . . .... . . .... .... ....   . . .... . . .... . . .... .... ....
e|------------------------------------------------------------------6-8---------|
B|-------------------------------------------------------66666666-9-----8-------|
G|-88888888-66666666----------------------------88888888------------------------|
D|--------------------1010101010101010-88888888---------------------------------|
A|------------------------------------------------------------------------------|
D|------------------------------------------------------------------------------|

(Just drums & Hayley) Whoah.. I never meant to brag but I got him where I want him now.  
(guitars back in chorus)

Chorus: 
      
e|--------------------------------------|  |-------------------------------------------|
B|--------------------------------------|  |-------------------------------------------|
G|----------------------------6666-5555-|  |-------------------------------------------|
D|-3-3-3333-6-6-6666-1-1-1111-6666-5555-|x2|---33333333"-11111111"-33333333"-11111111--|
A|-3-3-3333-6-6-6666-1-1-1111-4444-3333-|  |---33333333"-11111111"-33333333"-11111111--|
D|-3-3-3333-6-6-6666-1-1-1111-----------|  |---33333333"-11111111"-33333333"-11111111--|
   . . .... . . .... . . .... .... ....        ........  ........  ........  ........
e|----------------------|--------------------------|------------------------------------|
B|----------------------|--------------------------|------------------------------------|
G|----------------------|------------------66"-666-|------------------------------------|
D|-33-3---------11"-111-|-1--33-3----------66"-666-|-33-3---------11"-111--1---33-3-----|
A|-33-3"1h3-1h3-11--111-|-1--33-3"1h3-1h3"-44"-444-|-33-3-1h3-1h3-11"-111"-1---33-3-1h3-|
D|-33-3---------11--111-|-1--33-3--------------"---|-33-3---------11"-111"-1---33-3-----|
   .. . . . . . ..  ...   .  .. . . . . .  ..  ...   .. . . . . . ..  ...  .   .. . . . 
e|----------------------|
B|----------------------|
G|-----66-66------------|
D|-----66-66------------|
A|-1h3-44-44------------|
D|----------------------|

 
 
Paramore - Misery Business :: indexed at Ultimate Guitar.
Misery Business tabs @ 911Tabs

About the artist behind Misery Business:

Paramore (IPA: /'pærəmɔər/) is an American rock band that formed in Franklin, Tennessee in 2004 consisting of Hayley Williams (lead vocals/keyboard), Josh Farro (lead guitar/backing vocals), Jeremy Davis (bass guitar), and Zac Farro (drums). The group released their debut album All We Know Is Falling in 2005, and their second album Riot! in 2007, which was certified gold in the US and the UK.

Indexed at Wikipedia.

Show us your talent, perform Misery Business!

Here you can post a video or audio performance. Tell me more ...
Where can we find your performance? Tell me more ...
Your comment:
Please, log in to post your performance.