Artists by letter: A B C D E F G H I J K L M N O P Q R S T U V W X Y Z 0-9

 
Misery Business
[Intro]

E|----------------------------------------------------------------|
B|----------------------------------------------------------------|
G|----------------------------------------------------------------|
D|---4-4--4-----------2-2--2-2-2----4-4--4-----------0-0-0-0-0-0--|
A|---4-4--4--2-4-2-4--2-2--2-2-2----4-4--4--2-4-2-4--0-0-0-0-0-0--|
D|---4-4--4-----------2-2--2-2-2----4-4--4-----------0-0-0-0-0-0--|

E|----------------------------------------------------------------|
B|----------------------------------------------------------------|
G|----------------------------------------------------------------|
D|---4-4--4-----------2-2--2-2-2----4-4--4-------------------2-4--|
A|---4-4--4--2-4-2-4--2-2--2-2-2----4-4--4--2-4-2-4------2-4------|
D|---4-4--4-----------2-2--2-2-2----4-4--4-----------2-4----------|


[Verse]

E|-------------------------------------------------------------------|
B|-------------------------------------------------------------------|
G|-------------------------------------------------------------------|
D|---4-4-4-4-4-4-4-4-2-2-2-2-2-2-2-2-4-4-4-4-4-4-4-4-0-0-0-0-0-0-0-0-|
A|---4-4-4-4-4-4-4-4-2-2-2-2-2-2-2-2-4-4-4-4-4-4-4-4-0-0-0-0-0-0-0-0-|
D|---4-4-4-4-4-4-4-4-2-2-2-2-2-2-2-2-4-4-4-4-4-4-4-4-0-0-0-0-0-0-0-0-|
   (PM)------------------------------------------------------------(PM)
                                                                         2X
E|-------------------------------------------------------------------|
B|-------------------------------------------------------------------|
G|-------------------------------------------------------------------|
D|---4-4-4-4-4-4-4-4-2-2-2-2-2-2-2-2-4-4-4-4-4-4-4-4-7-7-7-7-6-6-6-6-|
A|---4-4-4-4-4-4-4-4-2-2-2-2-2-2-2-2-4-4-4-4-4-4-4-4-7-7-7-7-6-6-6-6-|
D|---4-4-4-4-4-4-4-4-2-2-2-2-2-2-2-2-4-4-4-4-4-4-4-4-7-7-7-7-6-6-6-6-|
   (PM)------------------------------------------------------------(PM)

E|-------------------------------------------------------------------|
B|----5-x-5-x-5-8-5-8------------------------------------------------|
G|-------------------------------------------------------------------|
D|-------------------------------------------------------------------|  8X
A|-------------------------------------------------------------------|
D|-------------------------------------------------------------------|


[Pre-Chorus]

E|-------------------------------------------------------------------|
B|-------------------------------------------------------------------|
G|-------------------------------------------------------------------|
D|----4-4-4-4-4-4-4-4---2-2-2-2-2------------------------------------| 
A|----4-4-4-4-4-4-4-4---2-2-2-2-2------------------------------------|
D|----4-4-4-4-4-4-4-4---2-2-2-2-2------------------------------------|


[Chorus]

E|----------------------------------------------------------------------|
B|7-7-7-7-7-7-7-7-------------------------------------------------------|
G|6-6-6-6-6-6-6-6---------------------4-4-4-4-4-4-4-4---7-7-7-7-6-6-6-6-|
D|4-4-4-4-4-4-4-4---7-7-7-7-7-7-7-7---2-2-2-2-2-2-2-2---4-4-4-4-4-4-4-4-|  2X
A|5-5-5-5-5-5-5-5---7-7-7-7-7-7-7-7---2-2-2-2-2-2-2-2---4-4-4-4-4-4-4-4-|
D|------------------7-7-7-7-7-7-7-7---2-2-2-2-2-2-2-2---4-4-4-4-4-4-4-4-|

E|-------------------------------------------------------------------|
B|-------------------------------------------------------------------|
G|-------------------------------------------------------------------|
D|-0-x-0-x-0-x-0-x-0-x-0-x-0h4-4--2-x-2-x-2-x-2-x-2-x-2-x-2h4-4------|  
A|-0-x-0-x-0-x-0-x-0-x-0-x-0h4-4--2-x-2-x-2-x-2-x-2-x-2-x-2h4-4------|
D|-0-x-0-x-0-x-0-x-0-x-0-x-0h4-4--2-x-2-x-2-x-2-x-2-x-2-x-2h4-4------|
  does it feel so good...

E|--------------------------------------------------------------------|
B|--------------------------------------------------------------------|
G|--------------------------------------------------------------------|
D|-0-x-0-x-0-x-0-x-0-x-0-x-0h4-4--2-x-2-x-2-x-2-x--4-4-4-4-4----------|  
A|-0-x-0-x-0-x-0-x-0-x-0-x-0h4-4--2-x-2-x-2-x-2-x--4-4-4-4-4----------|
D|-0-x-0-x-0-x-0-x-0-x-0-x-0h4-4--2-x-2-x-2-x-2-x--4-4-4-4-4----------|

E|-------------------------------------------------------------------|
B|-------------------------------------------------------------------|
G|-------------------------------------------------------------------|
D|---4-4--4-----------2-2--2-2-2----4-4--4-----------7-7-7-7---------|
A|---4-4--4--2-4-2-4--2-2--2-2-2----4-4--4--2-4-2-4--7-7-7-7---------|
D|---4-4--4-----------2-2--2-2-2----4-4--4-----------7-7-7-7---------|


[Verse]

E|-------------------------------------------------------------------|
B|-------------------------------------------------------------------|
G|-------------------------------------------------------------------|
D|---4-4-4-4-4-4-4-4-2-2-2-2-2-2-2-2-4-4-4-4-4-4-4-4-0-0-0-0-0-0-0-0-|
A|---4-4-4-4-4-4-4-4-2-2-2-2-2-2-2-2-4-4-4-4-4-4-4-4-0-0-0-0-0-0-0-0-|
D|---4-4-4-4-4-4-4-4-2-2-2-2-2-2-2-2-4-4-4-4-4-4-4-4-0-0-0-0-0-0-0-0-|
   (PM)------------------------------------------------------------(PM)
                                                                         2X
E|-------------------------------------------------------------------|
B|-------------------------------------------------------------------|
G|-------------------------------------------------------------------|
D|---4-4-4-4-4-4-4-4-2-2-2-2-2-2-2-2-4-4-4-4-4-4-4-4-7-7-7-7-6-6-6-6-|
A|---4-4-4-4-4-4-4-4-2-2-2-2-2-2-2-2-4-4-4-4-4-4-4-4-7-7-7-7-6-6-6-6-|
D|---4-4-4-4-4-4-4-4-2-2-2-2-2-2-2-2-4-4-4-4-4-4-4-4-7-7-7-7-6-6-6-6-|
   (PM)------------------------------------------------------------(PM)

E|-------------------------------------------------------------------|
B|----5-x-5-x-5-8-5-8------------------------------------------------|
G|-------------------------------------------------------------------|
D|-------------------------------------------------------------------|  8X
A|-------------------------------------------------------------------|
D|-------------------------------------------------------------------|


[Pre-Chorus]

E|--------------------------------------------------------------------|
B|--------------------------------------------------------------------|
G|--------------------------------------------------------------------|
D|----4-4-4-4-4-4-4-4---2-2-2-2-2-------------------------------------| 
A|----4-4-4-4-4-4-4-4---2-2-2-2-2-------------------------------------|
D|----4-4-4-4-4-4-4-4---2-2-2-2-2-------------------------------------|


[Chorus]

E|-----------------------------------------------------------------------|
B|-7-7-7-7-7-7-7-7-------------------------------------------------------|
G|-6-6-6-6-6-6-6-6---------------------4-4-4-4-4-4-4-4---7-7-7-7-6-6-6-6-|
D|-4-4-4-4-4-4-4-4---7-7-7-7-7-7-7-7---2-2-2-2-2-2-2-2---4-4-4-4-4-4-4-4-|  2X
A|-5-5-5-5-5-5-5-5---7-7-7-7-7-7-7-7---2-2-2-2-2-2-2-2---4-4-4-4-4-4-4-4-|
D|-------------------7-7-7-7-7-7-7-7---2-2-2-2-2-2-2-2---4-4-4-4-4-4-4-4-|

E|-------------------------------------------------------------------|
B|-------------------------------------------------------------------|
G|-------------------------------------------------------------------|
D|-0-x-0-x-0-x-0-x-0-x-0-x-0h4-4--2-x-2-x-2-x-2-x-2-x-2-x-2h4-4------|  
A|-0-x-0-x-0-x-0-x-0-x-0-x-0h4-4--2-x-2-x-2-x-2-x-2-x-2-x-2h4-4------|
D|-0-x-0-x-0-x-0-x-0-x-0-x-0h4-4--2-x-2-x-2-x-2-x-2-x-2-x-2h4-4------|
  does it feel so good...

E|----------------------------------------------------------------------|
B|----------------------------------------------------------------------|
G|----------------------------------------------------------------------|
D|-0-x-0-x-0-x-0-x-0-x-0-x-0h4-4--2-x-2-x-2-x-2-x--4-4-4-4-4------------|  
A|-0-x-0-x-0-x-0-x-0-x-0-x-0h4-4--2-x-2-x-2-x-2-x--4-4-4-4-4------------|
D|-0-x-0-x-0-x-0-x-0-x-0-x-0h4-4--2-x-2-x-2-x-2-x--4-4-4-4-4------------|


[Bridge]

E|---------------------------------------|
B|--7------------------------------------|
G|--6-9-4-6------------------------------|
D|--4-7-2-4------------------------------|  4X
A|--5-7-2-4------------------------------|
D|----7-2-4------------------------------|


[Interlude]

The other guitar plays the chorus
E|-------------------------------------------------|
B|-------------------------------------------------|
G|--9/11-11-11-11-11-11----------------------------| 
D|--x-x--x--x--x--x--x-----------------------------|3X
A|--7/9--9--9--9--9--9-----------------------------|
D|-------------------------------------------------| 
                                                        2X
E|-------------------------------------------------|
B|-------------------------------------------------|
G|-------------------------------------------------| 
D|--12-12-12-12-12-12-12-12-11-11-11-11-11-11-11-11|
A|-------------------------------------------------|
D|-------------------------------------------------| 

E|-----------------------------------------------------------------|
B|-----------------------------------------------------------------|
G|--9-9-9-9-9-9-9-9------------------------------------------------| 
D|------------------12-12-12-12-12-12-12-12-11-11-11-11-11-11-11-11|
A|-----------------------------------------------------------------|
D|-----------------------------------------------------------------| 

E|-----------------------------------------------------------------|
B|-----------------------------------------------------------------|
G|-----------------------------------------------------------------| 
D|-11-11-11-11-11-11-11-11-9-9-9-9-9-9-9-9-9-----------------------|
A|-----------------------------------------------------------------|
D|-----------------------------------------------------------------|

E|-----------------------------------------------------------------|
B|-----------------------------------------------------------------|
G|-9-9-9-9-9-9-9-9-11-11-11-11-11-11-11-11-------------------------| 
D|-----------------------------------------------------------------|
A|-----------------------------------------------------------------|
D|-----------------------------------------------------------------|

E|-----------------------------------------------------------------|
B|-10-10-10-10-12-12-14-9\-----------------------------------------|
G|-----------------------------------------------------------------| 
D|-----------------------------------------------------------------|
A|-----------------------------------------------------------------|
D|-----------------------------------------------------------------|


[Chorus]

E|-------------------------------------------------------------------------|
B|--7-7-7-7-7-7-7-7--------------------------------------------------------|
G|--6-6-6-6-6-6-6-6---------------------4-4-4-4-4-4-4-4---7-7-7-7-6-6-6-6--|
D|--4-4-4-4-4-4-4-4---7-7-7-7-7-7-7-7---2-2-2-2-2-2-2-2---4-4-4-4-4-4-4-4--|  2X
A|--5-5-5-5-5-5-5-5---7-7-7-7-7-7-7-7---2-2-2-2-2-2-2-2---4-4-4-4-4-4-4-4--|
D|--------------------7-7-7-7-7-7-7-7---2-2-2-2-2-2-2-2---4-4-4-4-4-4-4-4--|

E|-------------------------------------------------------------------|
B|-------------------------------------------------------------------|
G|-------------------------------------------------------------------|
D|-0-x-0-x-0-x-0-x-0-x-0-x-0h4-4--2-x-2-x-2-x-2-x-2-x-2-x-2h4-4------|  
A|-0-x-0-x-0-x-0-x-0-x-0-x-0h4-4--2-x-2-x-2-x-2-x-2-x-2-x-2h4-4------|
D|-0-x-0-x-0-x-0-x-0-x-0-x-0h4-4--2-x-2-x-2-x-2-x-2-x-2-x-2h4-4------|
  does it feel so good...

E|------------------------------------------------------------------------|
B|------------------------------------------------------------------------|
G|------------------------------------------------------------------------|
D|-0-x-0-x-0-x-0-x-0-x-0-x-0h4-4--2-x-2-x-2-x-2-x--4-4-4-4-4--------------|  
A|-0-x-0-x-0-x-0-x-0-x-0-x-0h4-4--2-x-2-x-2-x-2-x--4-4-4-4-4--------------|
D|-0-x-0-x-0-x-0-x-0-x-0-x-0h4-4--2-x-2-x-2-x-2-x--4-4-4-4-4--------------|


[Outro]

E|----------------------------------------------------------------|
B|----------------------------------------------------------------|
G|----------------------------------------------------------------|
D|---4-4--4-----------2-2--2-2-2----4-4--4-----------0-0-0-0-0-0--|
A|---4-4--4--2-4-2-4--2-2--2-2-2----4-4--4--2-4-2-4--0-0-0-0-0-0--|
D|---4-4--4-----------2-2--2-2-2----4-4--4-----------0-0-0-0-0-0--|

E|---------------------------------------------------------------------|
B|---------------------------------------------------------------------|
G|---------------------------------------------------------------------|
D|---4-4--4-----------2-2--2-2-2----4-4--4-----------7-7-7-7-7---------|
A|---4-4--4--2-4-2-4--2-2--2-2-2----4-4--4--2-4-2-4--7-7-7-7-7---------|
D|---4-4--4-----------2-2--2-2-2----4-4--4-----------7-7-7-7-7---------|


[Intro]

E|----------------------------------------------------------------|
B|----------------------------------------------------------------|
G|----------------------------------------------------------------|
D|---4-4--4-----------2-2--2-2-2----4-4--4-----------0-0-0-0-0-0--|
A|---4-4--4--2-4-2-4--2-2--2-2-2----4-4--4--2-4-2-4--0-0-0-0-0-0--|
D|---4-4--4-----------2-2--2-2-2----4-4--4-----------0-0-0-0-0-0--|


E|----------------------------------------------------------------|
B|----------------------------------------------------------------|
G|----------------------------------------------------------------|
D|---4-4--4-----------2-2--2-2-2----4-4--4-------------------2-4--|
A|---4-4--4--2-4-2-4--2-2--2-2-2----4-4--4--2-4-2-4------2-4------|
D|---4-4--4-----------2-2--2-2-2----4-4--4-----------2-4----------|


[Verse]

E|-------------------------------------------------------------------|
B|-------------------------------------------------------------------|
G|-------------------------------------------------------------------|
D|---4-4-4-4-4-4-4-4-2-2-2-2-2-2-2-2-4-4-4-4-4-4-4-4-0-0-0-0-0-0-0-0-|
A|---4-4-4-4-4-4-4-4-2-2-2-2-2-2-2-2-4-4-4-4-4-4-4-4-0-0-0-0-0-0-0-0-|
D|---4-4-4-4-4-4-4-4-2-2-2-2-2-2-2-2-4-4-4-4-4-4-4-4-0-0-0-0-0-0-0-0-|
   (PM)------------------------------------------------------------(PM)
                                                                         2X
E|-------------------------------------------------------------------|
B|-------------------------------------------------------------------|
G|-------------------------------------------------------------------|
D|---4-4-4-4-4-4-4-4-2-2-2-2-2-2-2-2-4-4-4-4-4-4-4-4-7-7-7-7-6-6-6-6-|
A|---4-4-4-4-4-4-4-4-2-2-2-2-2-2-2-2-4-4-4-4-4-4-4-4-7-7-7-7-6-6-6-6-|
D|---4-4-4-4-4-4-4-4-2-2-2-2-2-2-2-2-4-4-4-4-4-4-4-4-7-7-7-7-6-6-6-6-|
   (PM)------------------------------------------------------------(PM)

E|-------------------------------------------------------------------|
B|----5-x-5-x-5-8-5-8------------------------------------------------|
G|-------------------------------------------------------------------|
D|-------------------------------------------------------------------|  8X
A|-------------------------------------------------------------------|
D|-------------------------------------------------------------------|


[Pre-Chorus]

E|---------------------------------------------------------------------|
B|---------------------------------------------------------------------|
G|---------------------------------------------------------------------|
D|----4-4-4-4-4-4-4-4---2-2-2-2-2--------------------------------------| 
A|----4-4-4-4-4-4-4-4---2-2-2-2-2--------------------------------------|
D|----4-4-4-4-4-4-4-4---2-2-2-2-2--------------------------------------|


[Chorus]

E|-------------------------------------------------------------------------|
B|--7-7-7-7-7-7-7-7--------------------------------------------------------|
G|--6-6-6-6-6-6-6-6---------------------4-4-4-4-4-4-4-4---7-7-7-7-6-6-6-6--|
D|--4-4-4-4-4-4-4-4---7-7-7-7-7-7-7-7---2-2-2-2-2-2-2-2---4-4-4-4-4-4-4-4--|  2X
A|--5-5-5-5-5-5-5-5---7-7-7-7-7-7-7-7---2-2-2-2-2-2-2-2---4-4-4-4-4-4-4-4--|
D|--------------------7-7-7-7-7-7-7-7---2-2-2-2-2-2-2-2---4-4-4-4-4-4-4-4--|

E|-------------------------------------------------------------------|
B|-------------------------------------------------------------------|
G|-------------------------------------------------------------------|
D|-0-x-0-x-0-x-0-x-0-x-0-x-0h4-4--2-x-2-x-2-x-2-x-2-x-2-x-2h4-4------|  
A|-0-x-0-x-0-x-0-x-0-x-0-x-0h4-4--2-x-2-x-2-x-2-x-2-x-2-x-2h4-4------|
D|-0-x-0-x-0-x-0-x-0-x-0-x-0h4-4--2-x-2-x-2-x-2-x-2-x-2-x-2h4-4------|
  does it feel so good...

E|--------------------------------------------------------------------------|
B|--------------------------------------------------------------------------|
G|--------------------------------------------------------------------------|
D|-0-x-0-x-0-x-0-x-0-x-0-x-0h4-4--2-x-2-x-2-x-2-x--4-4-4-4-4----------------|  
A|-0-x-0-x-0-x-0-x-0-x-0-x-0h4-4--2-x-2-x-2-x-2-x--4-4-4-4-4----------------|
D|-0-x-0-x-0-x-0-x-0-x-0-x-0h4-4--2-x-2-x-2-x-2-x--4-4-4-4-4----------------|

E|--------------------------------------------------------------------------|
B|--------------------------------------------------------------------------|
G|--------------------------------------------------------------------------|
D|---4-4--4-----------2-2--2-2-2----4-4--4------------7-7-7-7---------------|
A|---4-4--4--2-4-2-4--2-2--2-2-2----4-4--4--2-4-2-4---7-7-7-7---------------|
D|---4-4--4-----------2-2--2-2-2----4-4--4------------7-7-7-7---------------|


[Verse]

E|-------------------------------------------------------------------|
B|-------------------------------------------------------------------|
G|-------------------------------------------------------------------|
D|---4-4-4-4-4-4-4-4-2-2-2-2-2-2-2-2-4-4-4-4-4-4-4-4-0-0-0-0-0-0-0-0-|
A|---4-4-4-4-4-4-4-4-2-2-2-2-2-2-2-2-4-4-4-4-4-4-4-4-0-0-0-0-0-0-0-0-|
D|---4-4-4-4-4-4-4-4-2-2-2-2-2-2-2-2-4-4-4-4-4-4-4-4-0-0-0-0-0-0-0-0-|
   (PM)------------------------------------------------------------(PM)
                                                                         2X
E|-------------------------------------------------------------------|
B|-------------------------------------------------------------------|
G|-------------------------------------------------------------------|
D|---4-4-4-4-4-4-4-4-2-2-2-2-2-2-2-2-4-4-4-4-4-4-4-4-7-7-7-7-6-6-6-6-|
A|---4-4-4-4-4-4-4-4-2-2-2-2-2-2-2-2-4-4-4-4-4-4-4-4-7-7-7-7-6-6-6-6-|
D|---4-4-4-4-4-4-4-4-2-2-2-2-2-2-2-2-4-4-4-4-4-4-4-4-7-7-7-7-6-6-6-6-|
   (PM)------------------------------------------------------------(PM)

E|-------------------------------------------------------------------|
B|----5-x-5-x-5-8-5-8------------------------------------------------|
G|-------------------------------------------------------------------|
D|-------------------------------------------------------------------|  8X
A|-------------------------------------------------------------------|
D|-------------------------------------------------------------------|


[Pre-Chorus]

E|-------------------------------------------------------------------|
B|-------------------------------------------------------------------|
G|-------------------------------------------------------------------|
D|----4-4-4-4-4-4-4-4---2-2-2-2-2------------------------------------| 
A|----4-4-4-4-4-4-4-4---2-2-2-2-2------------------------------------|
D|----4-4-4-4-4-4-4-4---2-2-2-2-2------------------------------------|


[Chorus]

E|---------------------------------------------------------------------------|
B|--7-7-7-7-7-7-7-7----------------------------------------------------------|
G|--6-6-6-6-6-6-6-6---------------------4-4-4-4-4-4-4-4---7-7-7-7-6-6-6-6----|
D|--4-4-4-4-4-4-4-4---7-7-7-7-7-7-7-7---2-2-2-2-2-2-2-2---4-4-4-4-4-4-4-4----|  2X
A|--5-5-5-5-5-5-5-5---7-7-7-7-7-7-7-7---2-2-2-2-2-2-2-2---4-4-4-4-4-4-4-4----|
D|--------------------7-7-7-7-7-7-7-7---2-2-2-2-2-2-2-2---4-4-4-4-4-4-4-4----|

E|-------------------------------------------------------------------|
B|-------------------------------------------------------------------|
G|-------------------------------------------------------------------|
D|-0-x-0-x-0-x-0-x-0-x-0-x-0h4-4--2-x-2-x-2-x-2-x-2-x-2-x-2h4-4------|  
A|-0-x-0-x-0-x-0-x-0-x-0-x-0h4-4--2-x-2-x-2-x-2-x-2-x-2-x-2h4-4------|
D|-0-x-0-x-0-x-0-x-0-x-0-x-0h4-4--2-x-2-x-2-x-2-x-2-x-2-x-2h4-4------|
  does it feel so good...

E|------------------------------------------------------------------------|
B|------------------------------------------------------------------------|
G|------------------------------------------------------------------------|
D|-0-x-0-x-0-x-0-x-0-x-0-x-0h4-4--2-x-2-x-2-x-2-x--4-4-4-4-4--------------|  
A|-0-x-0-x-0-x-0-x-0-x-0-x-0h4-4--2-x-2-x-2-x-2-x--4-4-4-4-4--------------|
D|-0-x-0-x-0-x-0-x-0-x-0-x-0h4-4--2-x-2-x-2-x-2-x--4-4-4-4-4--------------|


[Bridge]

E|---------------------------------------|
B|--7------------------------------------|
G|--6-9-4-6------------------------------|
D|--4-7-2-4------------------------------|  4X
A|--5-7-2-4------------------------------|
D|----7-2-4------------------------------|


[Interlude]

The other guitar plays the chorus
E|-------------------------------------------------|
B|-------------------------------------------------|
G|--9/11-11-11-11-11-11----------------------------| 
D|--x-x--x--x--x--x--x-----------------------------|3X
A|--7/9--9--9--9--9--9-----------------------------|
D|-------------------------------------------------| 
                                                        2X
E|-------------------------------------------------|
B|-------------------------------------------------|
G|-------------------------------------------------| 
D|--12-12-12-12-12-12-12-12-11-11-11-11-11-11-11-11|
A|-------------------------------------------------|
D|-------------------------------------------------| 

E|-----------------------------------------------------------------|
B|-----------------------------------------------------------------|
G|--9-9-9-9-9-9-9-9------------------------------------------------| 
D|------------------12-12-12-12-12-12-12-12-11-11-11-11-11-11-11-11|
A|-----------------------------------------------------------------|
D|-----------------------------------------------------------------| 

E|-----------------------------------------------------------------|
B|-----------------------------------------------------------------|
G|-----------------------------------------------------------------| 
D|-11-11-11-11-11-11-11-11-9-9-9-9-9-9-9-9-9-----------------------|
A|-----------------------------------------------------------------|
D|-----------------------------------------------------------------|

E|-----------------------------------------------------------------|
B|-----------------------------------------------------------------|
G|-9-9-9-9-9-9-9-9-11-11-11-11-11-11-11-11-------------------------| 
D|-----------------------------------------------------------------|
A|-----------------------------------------------------------------|
D|-----------------------------------------------------------------|

E|-----------------------------------------------------------------|
B|-10-10-10-10-12-12-14-9\-----------------------------------------|
G|-----------------------------------------------------------------| 
D|-----------------------------------------------------------------|
A|-----------------------------------------------------------------|
D|-----------------------------------------------------------------|


[Chorus]

E|---------------------------------------------------------------------------|
B|--7-7-7-7-7-7-7-7----------------------------------------------------------|
G|--6-6-6-6-6-6-6-6---------------------4-4-4-4-4-4-4-4---7-7-7-7-6-6-6-6----|
D|--4-4-4-4-4-4-4-4---7-7-7-7-7-7-7-7---2-2-2-2-2-2-2-2---4-4-4-4-4-4-4-4----|  2X
A|--5-5-5-5-5-5-5-5---7-7-7-7-7-7-7-7---2-2-2-2-2-2-2-2---4-4-4-4-4-4-4-4----|
D|--------------------7-7-7-7-7-7-7-7---2-2-2-2-2-2-2-2---4-4-4-4-4-4-4-4----|

E|-------------------------------------------------------------------|
B|-------------------------------------------------------------------|
G|-------------------------------------------------------------------|
D|-0-x-0-x-0-x-0-x-0-x-0-x-0h4-4--2-x-2-x-2-x-2-x-2-x-2-x-2h4-4------|  
A|-0-x-0-x-0-x-0-x-0-x-0-x-0h4-4--2-x-2-x-2-x-2-x-2-x-2-x-2h4-4------|
D|-0-x-0-x-0-x-0-x-0-x-0-x-0h4-4--2-x-2-x-2-x-2-x-2-x-2-x-2h4-4------|
  does it feel so good...

E|--------------------------------------------------------------------------|
B|--------------------------------------------------------------------------|
G|--------------------------------------------------------------------------|
D|-0-x-0-x-0-x-0-x-0-x-0-x-0h4-4--2-x-2-x-2-x-2-x--4-4-4-4-4----------------|  
A|-0-x-0-x-0-x-0-x-0-x-0-x-0h4-4--2-x-2-x-2-x-2-x--4-4-4-4-4----------------|
D|-0-x-0-x-0-x-0-x-0-x-0-x-0h4-4--2-x-2-x-2-x-2-x--4-4-4-4-4----------------|


[Outro]

E|----------------------------------------------------------------|
B|----------------------------------------------------------------|
G|----------------------------------------------------------------|
D|---4-4--4-----------2-2--2-2-2----4-4--4-----------0-0-0-0-0-0--|
A|---4-4--4--2-4-2-4--2-2--2-2-2----4-4--4--2-4-2-4--0-0-0-0-0-0--|
D|---4-4--4-----------2-2--2-2-2----4-4--4-----------0-0-0-0-0-0--|

E|------------------------------------------------------------------------|
B|------------------------------------------------------------------------|
G|------------------------------------------------------------------------|
D|---4-4--4-----------2-2--2-2-2----4-4--4-----------7-7-7-7-7------------|
A|---4-4--4--2-4-2-4--2-2--2-2-2----4-4--4--2-4-2-4--7-7-7-7-7------------|
D|---4-4--4-----------2-2--2-2-2----4-4--4-----------7-7-7-7-7------------|



************************************

| x  Dead note
| h  Hammer-on
| /  Slide up
| \  Slide down
| PM Palm mute 

************************************
 
 
Paramore - Misery Business :: indexed at Ultimate Guitar.
Misery Business tabs @ 911Tabs

About the artist behind Misery Business:

Paramore (IPA: /'pærəmɔər/) is an American rock band that formed in Franklin, Tennessee in 2004 consisting of Hayley Williams (lead vocals/keyboard), Josh Farro (lead guitar/backing vocals), Jeremy Davis (bass guitar), and Zac Farro (drums). The group released their debut album All We Know Is Falling in 2005, and their second album Riot! in 2007, which was certified gold in the US and the UK.

Indexed at Wikipedia.

Show us your talent, perform Misery Business!

Here you can post a video or audio performance. Tell me more ...
Where can we find your performance? Tell me more ...
Your comment:
Please, log in to post your performance.