Artists by letter: A B C D E F G H I J K L M N O P Q R S T U V W X Y Z 0-9

 
Grow Up
-------------------------------------------------------------------------------
                             Grow Up - Paramore
-------------------------------------------------------------------------------
Tabbed by: a7x4lifeXxX
E-mail: [email protected]

Tuning: Drop D

       Hope you enjoy my deciphering of the song and let me know what you think :)
            I'm sure it's about 99% accurate based on what I saw from their live shows.
  
 Verse:

e|---------------------------------------------------------------------------------| x2
B|---------------------------------------------------------------------------------|
G|----------7---------7---------7--------------------7--------7--------7-----------|
D|---------------------------------------------------------------------------------|
A|--------9---------9---------9-----------------5--9--------9--------9-------------|
D|--9/12------9/12------9/12------9/12--7/9--7--5------7\5------7\2------7\2--7\2--|

 Chorus:

e|-----------------------------------------------------------------------|
B|------15------15-----------------------7-----7---------------8/10------|
G|------14------14---------------7/9-----7-----7---------------x-x-------|
D|--12------12------9--xx--9--9--x-x--5-----5-----2--xx--2--2--5/7-------|
A|--12------12------9--xx--9--9--5/7--5-----5-----2--xx--2--2------------|
D|--12------12------9--xx--9--9-------5-----5-----2--xx--2--2------------|


e|-----------------------------------------------------------------------|
B|------15------15-----------------------7-----7-------------------------|
G|------14------14---------------7/9-----7-----7-------------------------|
D|--12------12------9--xx--9--9--x-x--5-----5-----0--xx--0--0--xxxx------|
A|--12------12------9--xx--9--9--5/7--5-----5-----0--xx--0--0--xxxx------|
D|--12------12------9--xx--9--9-------5-----5-----0--xx--0--0--xxxx------|

  (Verse)

  (Chorus)

   Bridge:

e|---------------------------------------------------------------------------------| x4
B|---------------------------------------------------------------------------------|
G|------7--------7--------7------------------7--------7--------7-------------------|
D|---------------------------------------------------------------------------------|
A|----9--------9--------9------------------9--------9--------9---------------------|
D|-5------7\5------7\5------7\5--7/9--7\2------7\2------7/9------7/9--7/9--7\------|

  (Chorus)

  And that's it! Hope you enjoyed it and have fun with it :) let me know what you think with a comment/rate.

************************************

| /   slide up
| \   slide down
| h   hammer-on
| p   pull-off
| ~   vibrato
| +   harmonic
| x   Mute note
| b   Bend
| pb  Pre-bend
| br  Bend release
| pbr Pre-bend release
| brb Bend release bend

************************************
 
 
Paramore - Grow Up :: indexed at Ultimate Guitar.
Grow Up tabs @ 911Tabs

About the artist behind Grow Up:

Paramore (IPA: /'pærəmɔər/) is an American rock band that formed in Franklin, Tennessee in 2004 consisting of Hayley Williams (lead vocals/keyboard), Josh Farro (lead guitar/backing vocals), Jeremy Davis (bass guitar), and Zac Farro (drums). The group released their debut album All We Know Is Falling in 2005, and their second album Riot! in 2007, which was certified gold in the US and the UK.

Indexed at Wikipedia.

Show us your talent, perform Grow Up!

Here you can post a video or audio performance. Tell me more ...
Where can we find your performance? Tell me more ...
Your comment:
Please, log in to post your performance.