Artists by letter: A B C D E F G H I J K L M N O P Q R S T U V W X Y Z 0-9

 
Emergency
EMERGENCY
As recorded by Paramore
(From the 2006 Album ALL WE KNOW IS FALLING)

Transcribed by Nate Orrow

Words and Music by Paramore
Arranged by Paramore

Intro
  Q=90
                                                          E5      F#5                    
                E5
 4/4
  Gtr I
  S S S E S S E S S E S S S   S S S E S S E S S E S S S    W
|-------9-----9-----9-------|-------7-----7-----7-------|---------------------------------------------------------|
|---7-----7-----7-----7---7-|---7-----7-----7-----7---7-|---------------------------------------------------------|
|-9---9-----9-----9-----9---|-9---9-----9-----9-----9---|---------------------------------------------------------|
|---------------------------|---------------------------|---------------------------------------------------------|
|---------------------------|---------------------------|---------------------------------------------------------|
|---------------------------|---------------------------|---------------------------------------------------------|
|
| Gtr II
| W                           W                            S   S   S   S   E   S   S   S 
 S   E   S   S   S   S
|---------------------------|---------------------------|---------------------------------------------------------|
|---------------------------|---------------------------|---------------------------------------------------------|
|---------------------------|---------------------------|---------------------------------------------------------|
|---------------------------|---------------------------|--2---2S==4---4---4---4---4---4---4---4---4---4S==2---2--|
|---------------------------|---------------------------|--2---2---4---4---4---4---4---4---4---4---4---4---2---2--|
|---------------------------|---------------------------|--2---2S==4---4---4---4---4---4---4---4---4---4S==2---2--|
|
| Gtr III
| W                           W                            S   S   S   S   E   S   S   S 
 S   E   S   S   S   S
|---------------------------|---------------------------|---------------------------------------------------------|
|---------------------------|---------------------------|---------------------------------------------------------|
|---------------------------|---------------------------|--9---9--11--11--11--11--11--11--11--11--11--11---9---9--|
|---------------------------|---------------------------|--9---9--11--11--11--11--11--11--11--11--11--11---9---9--|
|---------------------------|---------------------------|--7---7---9---9---9---9---9---9---9---9---9---9---7---7--|
|---------------------------|---------------------------|-(0)-(0)-(0)-(0)-(0)-(0)-(0)-(0)-(0)-(0)-(0)-(0)-(0)-(0)-|

F#5                                     E5
   W
|----------------------------------------------------------|
|----------------------------------------------------------|
|----------------------------------------------------------|
|----------------------------------------------------------|
|----------------------------------------------------------|
|----------------------------------------------------------|
|
|  S   S   S   S   E   S   S   S   S   E   S   S   S   S
|----------------------------------------------------------|
|----------------------------------------------------------|
|----------------------------------------------------------|
|--2---2S==4---4---4---4---4---4---4---4---4---4S==2---2---|
|--2---2---4---4---4---4---4---4---4---4---4---4---2---2---|
|--2---2S==4---4---4---4---4---4---4---4---4---4S==2---2---|
|
|  S   S   S   S   E   S   S   S   S   E   S   S   S   S
|----------------------------------------------------------|
|----------------------------------------------------------|
|--9---9--11--11--11--11--11--11--11--11--11--11---9---9---|
|--9---9--11--11--11--11--11--11--11--11--11--11---9---9---|
|--7---7---9---9---9---9---9---9---9---9---9---9---7---7---|
|-(0)-(0)-(0)-(0)-(0)-(0)-(0)-(0)-(0)-(0)-(0)-(0)-(0)-(0)--|

Verse
                                                              E5      F#5                
                    E5
    S S S E S S E S S E S S S    S  S S E S S E S S E S S S    W
||--------9-----9-----9-------|---------7-----7-----7-------|---------------------------------------------------------|
||o---7-----7-----7-----7---7-|-----7-----7-----7-----7---7-|---------------------------------------------------------|
||--9---9-----9-----9-----9---|--9----9-----9-----9-----9---|---------------------------------------------------------|
||----------------------------|-----------------------------|---------------------------------------------------------|
||o---------------------------|-----------------------------|---------------------------------------------------------|
||----------------------------|-----------------------------|---------------------------------------------------------|
|
|   W                           +W                             S   S   S   S   E   S   S 
 S   S   E   S   S   S   S
||----------------------------|-----------------------------|---------------------------------------------------------|
||o---------------------------|-----------------------------|---------------------------------------------------------|
||----------------------------|-----------------------------|---------------------------------------------------------|
||--0-------------------------|-(0)-------------------------|--2---2S==4---4---4---4---4---4---4---4---4---4S==2---2--|
||o-0-------------------------|-(0)-------------------------|--2---2---4---4---4---4---4---4---4---4---4---4---2---2--|
||--0-------------------------|-(0)-------------------------|--2---2S==4---4---4---4---4---4---4---4---4---4S==2---2--|
|
|   W                           +W                             S   S   S   S   E   S   S 
 S   S   E   S   S   S   S
||----------------------------|-----------------------------|---------------------------------------------------------|
||o---------------------------|-----------------------------|---------------------------------------------------------|
||--7-------------------------|-(7)-------------------------|--9---9--11--11--11--11--11--11--11--11--11--11---9---9--|
||--7-------------------------|-(7)-------------------------|--9---9--11--11--11--11--11--11--11--11--11--11---9---9--|
||o-5-------------------------|-(5)-------------------------|--7---7---9---9---9---9---9---9---9---9---9---9---7---7--|
||----------------------------|-----------------------------|-(0)-(0)-(0)-(0)-(0)-(0)-(0)-(0)-(0)-(0)-(0)-(0)-(0)-(0)-|

F#5                                     E5
   W                                                        3x
|-----------------------------------------------------------||
|----------------------------------------------------------o||
|-----------------------------------------------------------||
|-----------------------------------------------------------||
|----------------------------------------------------------o||
|-----------------------------------------------------------||
|
|  S   S   S   S   E   S   S   S   S   E   S   S   S   S    3x
|-----------------------------------------------------------||
|----------------------------------------------------------o||
|-----------------------------------------------------------||
|--2---2S==4---4---4---4---4---4---4---4---4---4S==2---2----||
|--2---2---4---4---4---4---4---4---4---4---4---4---2---2---o||
|--2---2S==4---4---4---4---4---4---4---4---4---4S==2---2----||
|
|  S   S   S   S   E   S   S   S   S   E   S   S   S   S    3x
|-----------------------------------------------------------||
|----------------------------------------------------------o||
|--9---9--11--11--11--11--11--11--11--11--11--11---9---9----||
|--9---9--11--11--11--11--11--11--11--11--11--11---9---9----||
|--7---7---9---9---9---9---9---9---9---9---9---9---7---7---o||
|-(0)-(0)-(0)-(0)-(0)-(0)-(0)-(0)-(0)-(0)-(0)-(0)-(0)-(0)---||

Pre-Chorus
  E5                                                F#5
   S  S  S  S  S  S  S  S  S  S  S  S  S  S  S  S    S  S  S  S  S  S  S  S  S  S  S  S  S S  S  S
|-12-------12-------12-------12-------12----------|-12-------12-------12-------12-------12----------|
|----12-------12-------12-------12-------12----12-|----12-------12-------12-------12-------12----12-|
|-------14-------14-------14-------14-------14----|-------14-------14-------14-------14-------14----|
|-------------------------------------------------|-------------------------------------------------|
|-------------------------------------------------|-------------------------------------------------|
|-------------------------------------------------|-------------------------------------------------|
|
| Gtrs II, III
|  W                                                 W
|-------------------------------------------------|-------------------------------------------------|
|-------------------------------------------------|-------------------------------------------------|
|-------------------------------------------------|-------------------------------------------------|
|--2----------------------------------------------|--4----------------------------------------------|
|--2----------------------------------------------|--4----------------------------------------------|
|--2----------------------------------------------|--4----------------------------------------------|

D5                                                                        B5          C#5
   S  S  S  S  S  S  S  S  S  S  S  S  S  S  S  S    S  S  S  S  S  S  S  S  S  S  S  S  S S  S  S
|-12-------12-------12-------12-------12----------|-12-------12-------12-------12-------12-------------||
|----12-------12-------12-------12-------12----12-|----12-------12-------12-------12-------12----12----||
|-------14-------14-------14-------14-------14----|-------14-------14-------14-------14-------14-------||
|-------------------------------------------------|----------------------------------------------------||
|-------------------------------------------------|----------------------------------------------------||
|-------------------------------------------------|----------------------------------------------------||
|
|  W                                                 H                       S  S  S  S  S S  S  S
|-------------------------------------------------|----------------------------------------------------||
|-------------------------------------------------|----------------------------------------------------||
|-------------------------------------------------|----------------------------------------------------||
|--0----------------------------------------------|--------------------------9--9--9--9-11-11-11-11----||
|--0----------------------------------------------|--------------------------9--9--9--9-11-11-11-11----||
|--0----------------------------------------------|--------------------------9--9--9--9-11-11-11-11----||

Chorus
    B5                C#5
     e    e   e   e    e     e     e     e
||--------------------------------------------|
||o-10---10---9---9---10----10-----9-----9----|
||--------------------------------------------|
||--------------------------------------------|
||o-------------------------------------------|
||--------------------------------------------|
|
|    S S  S S S S S S  S  S  S  S  S  S  S  S
||--------------------------------------------|
||o-------------------------------------------|
||--------------------------------------------|
||---9-9--9-9-9-9-9-9-11-11-11-11-11-11-11-11-|
||o--9-9--9-9-9-9-9-9-11-11-11-11-11-11-11-11-|
||---9-9--9-9-9-9-9-9-11-11-11-11-11-11-11-11-|
|
|   Gtr III
|    S S  S S S S S S  S  S  S  S  S  S  S  S
||--------------------------------------------|
||o-------------------------------------------|
||--------------------------------------------|
||---9-9--9-9-9-9-9-9-11-11-11-11-11-11-11-11-|
||o--9-9--9-9-9-9-9-9-11-11-11-11-11-11-11-11-|
||---9-9--9-9-9-9-9-9-11-11-11-11-11-11-11-11-|

F#5                     A5
   e     e     e     e     H
|---------------------------------------------------|
|-10----10-----9-----9------------------------------|
|-------------------------10------------------------|
|---------------------------------------------------|
|---------------------------------------------------|
|---------------------------------------------------|
|
|  S  S  S  S  S  S  S  S  S  S  S  S  S  S  S  S
|---------------------------------------------------|
|---------------------------------------------------|
|---------------------------------------------------|
|--4--4--4--4--4--4--4--4--7--7--7--7--7--7--7--7---|
|--4--4--4--4--4--4--4--4--7--7--7--7--7--7--7--7---|
|--4--4--4--4--4--4--4--4--7--7--7--7--7--7--7--7---|
|
|  S  S  S  S  S  S  S  S  S  S  S  S  S  S  S  S
|---------------------------------------------------|
|---------------------------------------------------|
|-11-11-11-11-11-11-11-11-14-14-14-14-14-14-14-14\--|
|-11-11-11-11-11-11-11-11-14-14-14-14-14-14-14-14---|
|--9--9--9--9--9--9--9--9-12-12-12-12-12-12-12-12\--|
|---------------------------------------------------|

B5           C#5
  E  e   e   e    e     e     e     e
|----------------------------------------|
|---10---9---9---10----10-----9-----9----|
|----------------------------------------|
|----------------------------------------|
|----------------------------------------|
|----------------------------------------|
|
| E  S S S S S S  S  S  S  S  S  S  S  S
|----------------------------------------|
|----------------------------------------|
|----------------------------------------|
|----9-9-9-9-9-9-11-11-11-11-11-11-11-11-|
|----9-9-9-9-9-9-11-11-11-11-11-11-11-11-|
|----9-9-9-9-9-9-11-11-11-11-11-11-11-11-|
|
| E  S S S S S S  S  S  S  S  S  S  S  S
|----------------------------------------|
|----------------------------------------|
|----------------------------------------|
|----9-9-9-9-9-9-11-11-11-11-11-11-11-11-|
|----9-9-9-9-9-9-11-11-11-11-11-11-11-11-|
|----9-9-9-9-9-9-11-11-11-11-11-11-11-11-|

F#5                     E5
   e     e     e     e    E    S  S  S  S E
|-------------------------9---12-10------------||
|-10----10-----9-----9--------------10-12-9---o||
|----------------------------------------------||
|----------------------------------------------||
|---------------------------------------------o||
|----------------------------------------------||
|
|  S  S  S  S  S  S  S  S S S  S  S  S  S S S
|----------------------------------------------||
|---------------------------------------------o||
|----------------------------------------------||
|--4--4--4--4--4--4--4--4-2-2--2--2--2--2-2-2--||
|--4--4--4--4--4--4--4--4-2-2--2--2--2--2-2-2-o||
|--4--4--4--4--4--4--4--4-2-2--2--2--2--2-2-2--||
|
|  S  S  S  S  S  S  S  S S S  S  S  S  S S S
|----------------------------------------------||
|---------------------------------------------o||
|-11-11-11-11-11-11-11-11-9-9--9--9--9--9-9-9--||
|-11-11-11-11-11-11-11-11-9-9--9--9--9--9-9-9--||
|--9--9--9--9--9--9--9--9-7-7--7--7--7--7-7-7-o||
|----------------------------------------------||

Verse
    D5                                                        E5      F#5                
                    E5
    S S S E S S E S S E S S S    S  S S E S S E S S E S S S    W
||--------9-----9-----9-------|---------7-----7-----7-------|---------------------------------------------------------|
||o---7-----7-----7-----7---7-|-----7-----7-----7-----7---7-|---------------------------------------------------------|
||--9---9-----9-----9-----9---|--9----9-----9-----9-----9---|---------------------------------------------------------|
||----------------------------|-----------------------------|---------------------------------------------------------|
||o---------------------------|-----------------------------|---------------------------------------------------------|
||----------------------------|-----------------------------|---------------------------------------------------------|
|
|   W                           +W                             S   S   S   S   E   S   S 
 S   S   E   S   S   S   S
||----------------------------|-----------------------------|---------------------------------------------------------|
||o---------------------------|-----------------------------|---------------------------------------------------------|
||----------------------------|-----------------------------|---------------------------------------------------------|
||--0-------------------------|-(0)-------------------------|--2---2S==4---4---4---4---4---4---4---4---4---4S==2---2--|
||o-0-------------------------|-(0)-------------------------|--2---2---4---4---4---4---4---4---4---4---4---4---2---2--|
||--0-------------------------|-(0)-------------------------|--2---2S==4---4---4---4---4---4---4---4---4---4S==2---2--|
|
|   W                           +W                             S   S   S   S   E   S   S 
 S   S   E   S   S   S   S
||----------------------------|-----------------------------|---------------------------------------------------------|
||o---------------------------|-----------------------------|---------------------------------------------------------|
||--7-------------------------|-(7)-------------------------|--9---9--11--11--11--11--11--11--11--11--11--11---9---9--|
||--7-------------------------|-(7)-------------------------|--9---9--11--11--11--11--11--11--11--11--11--11---9---9--|
||o-5-------------------------|-(5)-------------------------|--7---7---9---9---9---9---9---9---9---9---9---9---7---7--|
||----------------------------|-----------------------------|-(0)-(0)-(0)-(0)-(0)-(0)-(0)-(0)-(0)-(0)-(0)-(0)-(0)-(0)-|

F#5                                     E5
   W
|-----------------------------------------------------------||
|----------------------------------------------------------o||
|-----------------------------------------------------------||
|-----------------------------------------------------------||
|----------------------------------------------------------o||
|-----------------------------------------------------------||
|
|  S   S   S   S   E   S   S   S   S   E   S   S   S   S
|-----------------------------------------------------------||
|----------------------------------------------------------o||
|-----------------------------------------------------------||
|--2---2S==4---4---4---4---4---4---4---4---4---4S==2---2----||
|--2---2---4---4---4---4---4---4---4---4---4---4---2---2---o||
|--2---2S==4---4---4---4---4---4---4---4---4---4S==2---2----||
|
|  S   S   S   S   E   S   S   S   S   E   S   S   S   S
|-----------------------------------------------------------||
|----------------------------------------------------------o||
|--9---9--11--11--11--11--11--11--11--11--11--11---9---9----||
|--9---9--11--11--11--11--11--11--11--11--11--11---9---9----||
|--7---7---9---9---9---9---9---9---9---9---9---9---7---7---o||
|-(0)-(0)-(0)-(0)-(0)-(0)-(0)-(0)-(0)-(0)-(0)-(0)-(0)-(0)---||

Pre-Chorus
  E5                                                F#5
   S  S  S  S  S  S  S  S  S  S  S  S  S  S  S  S    S  S  S  S  S  S  S  S  S  S  S  S  S S  S  S
|-12-------12-------12-------12-------12----------|-12-------12-------12-------12-------12----------|
|----12-------12-------12-------12-------12----12-|----12-------12-------12-------12-------12----12-|
|-------14-------14-------14-------14-------14----|-------14-------14-------14-------14-------14----|
|-------------------------------------------------|-------------------------------------------------|
|-------------------------------------------------|-------------------------------------------------|
|-------------------------------------------------|-------------------------------------------------|
|
|    Gtrs II, III
|  W                                                 W
|-------------------------------------------------|-------------------------------------------------|
|-------------------------------------------------|-------------------------------------------------|
|-------------------------------------------------|-------------------------------------------------|
|--2----------------------------------------------|--4----------------------------------------------|
|--2----------------------------------------------|--4----------------------------------------------|
|--2----------------------------------------------|--4----------------------------------------------|

D5                                                                        B5          C#5
   S  S  S  S  S  S  S  S  S  S  S  S  S  S  S  S    S  S  S  S  S  S  S  S  S  S  S  S  S S  S  S
|-12-------12-------12-------12-------12----------|-12-------12-------12-------12-------12-------------||
|----12-------12-------12-------12-------12----12-|----12-------12-------12-------12-------12----12----||
|-------14-------14-------14-------14-------14----|-------14-------14-------14-------14-------14-------||
|-------------------------------------------------|----------------------------------------------------||
|-------------------------------------------------|----------------------------------------------------||
|-------------------------------------------------|----------------------------------------------------||
|
|  W                                                 H                       S  S  S  S  S S  S  S
|-------------------------------------------------|----------------------------------------------------||
|-------------------------------------------------|----------------------------------------------------||
|-------------------------------------------------|----------------------------------------------------||
|--0----------------------------------------------|--------------------------9--9--9--9-11-11-11-11----||
|--0----------------------------------------------|--------------------------9--9--9--9-11-11-11-11----||
|--0----------------------------------------------|--------------------------9--9--9--9-11-11-11-11----||

Chorus
    B5                C#5
     e    e   e   e    e     e     e     e
||--------------------------------------------|
||o-10---10---9---9---10----10-----9-----9----|
||--------------------------------------------|
||--------------------------------------------|
||o-------------------------------------------|
||--------------------------------------------|
|
|    S S  S S S S S S  S  S  S  S  S  S  S  S
||--------------------------------------------|
||o-------------------------------------------|
||--------------------------------------------|
||---9-9--9-9-9-9-9-9-11-11-11-11-11-11-11-11-|
||o--9-9--9-9-9-9-9-9-11-11-11-11-11-11-11-11-|
||---9-9--9-9-9-9-9-9-11-11-11-11-11-11-11-11-|
|
|   Gtr III
|    S S  S S S S S S  S  S  S  S  S  S  S  S
||--------------------------------------------|
||o-------------------------------------------|
||--------------------------------------------|
||---9-9--9-9-9-9-9-9-11-11-11-11-11-11-11-11-|
||o--9-9--9-9-9-9-9-9-11-11-11-11-11-11-11-11-|
||---9-9--9-9-9-9-9-9-11-11-11-11-11-11-11-11-|

F#5                     A5
   e     e     e     e     H
|---------------------------------------------------|
|-10----10-----9-----9------------------------------|
|-------------------------10------------------------|
|---------------------------------------------------|
|---------------------------------------------------|
|---------------------------------------------------|
|
|  S  S  S  S  S  S  S  S  S  S  S  S  S  S  S  S
|---------------------------------------------------|
|---------------------------------------------------|
|---------------------------------------------------|
|--4--4--4--4--4--4--4--4--7--7--7--7--7--7--7--7---|
|--4--4--4--4--4--4--4--4--7--7--7--7--7--7--7--7---|
|--4--4--4--4--4--4--4--4--7--7--7--7--7--7--7--7---|
|
|  S  S  S  S  S  S  S  S  S  S  S  S  S  S  S  S
|---------------------------------------------------|
|---------------------------------------------------|
|-11-11-11-11-11-11-11-11-14-14-14-14-14-14-14-14\--|
|-11-11-11-11-11-11-11-11-14-14-14-14-14-14-14-14---|
|--9--9--9--9--9--9--9--9-12-12-12-12-12-12-12-12\--|
|---------------------------------------------------|

B5           C#5
  E  e   e   e    e     e     e     e
|----------------------------------------|
|---10---9---9---10----10-----9-----9----|
|----------------------------------------|
|----------------------------------------|
|----------------------------------------|
|----------------------------------------|
|
| E  S S S S S S  S  S  S  S  S  S  S  S
|----------------------------------------|
|----------------------------------------|
|----------------------------------------|
|----9-9-9-9-9-9-11-11-11-11-11-11-11-11-|
|----9-9-9-9-9-9-11-11-11-11-11-11-11-11-|
|----9-9-9-9-9-9-11-11-11-11-11-11-11-11-|
|
| E  S S S S S S  S  S  S  S  S  S  S  S
|----------------------------------------|
|----------------------------------------|
|----------------------------------------|
|----9-9-9-9-9-9-11-11-11-11-11-11-11-11-|
|----9-9-9-9-9-9-11-11-11-11-11-11-11-11-|
|----9-9-9-9-9-9-11-11-11-11-11-11-11-11-|

F#5                     E5
   e     e     e     e    E    S  S  S  S E
|-------------------------9---12-10------------||
|-10----10-----9-----9--------------10-12-9---o||
|----------------------------------------------||
|----------------------------------------------||
|---------------------------------------------o||
|----------------------------------------------||
|
|  S  S  S  S  S  S  S  S S S  S  S  S  S S S
|----------------------------------------------||
|---------------------------------------------o||
|----------------------------------------------||
|--4--4--4--4--4--4--4--4-2-2--2--2--2--2-2-2--||
|--4--4--4--4--4--4--4--4-2-2--2--2--2--2-2-2-o||
|--4--4--4--4--4--4--4--4-2-2--2--2--2--2-2-2--||
|
|  S  S  S  S  S  S  S  S S S  S  S  S  S S S
|----------------------------------------------||
|---------------------------------------------o||
|-11-11-11-11-11-11-11-11-9-9--9--9--9--9-9-9--||
|-11-11-11-11-11-11-11-11-9-9--9--9--9--9-9-9--||
|--9--9--9--9--9--9--9--9-7-7--7--7--7--7-7-7-o||
|----------------------------------------------||

Bridge
  D5
  S S S E S S E S S E S S S    S  S S E S S E S S E S S S
|-------9-----9-----9-------|---------7-----7-----7--------|
|---7-----7-----7-----7---7-|-----7-----7-----7-----7---7--|
|-9---9-----9-----9-----9---|--9----9-----9-----9-----9----|
|---------------------------|------------------------------|
|---------------------------|------------------------------|
|---------------------------|------------------------------|
|
| Gtrs II, III
| W                           +W
|---------------------------|------------------------------|
|---------------------------|------------------------------|
|---------------------------|------------------------------|
|-0-------------------------|-(0)--------------------------|
|-0-------------------------|-(0)--------------------------|
|-0-------------------------|-(0)--------------------------|

E5                                                 F#5
   S  S  S   S  S  S  S  S  S  S  S  S  S  S  S  S    S  S  S   S  S  S  S  S  S  S  S  S S  S  S  S
|-12--------12-------12-------12-------12----------|-12--------12-------12-------12-------12----------|
|----12--------12-------12-------12-------12----12-|----12--------12-------12-------12-------12----12-|
|-------14--------14-------14-------14-------14----|-------14--------14-------14-------14-------14----|
|--------------------------------------------------|--------------------------------------------------|
|--------------------------------------------------|--------------------------------------------------|
|--------------------------------------------------|--------------------------------------------------|
|
|  S  S  H.                                   S  S    S  S  H.                           
       S  S
|--------------------------------------------------|--------------------------------------------------|
|--------------------------------------------------|--------------------------------------------------|
|--------------------------------------------------|--------------------------------------------------|
|--2--2--2------------------------------------2--2-|--4--4--4------------------------------------4--4-|
|--2--2--2------------------------------------2--2-|--4--4--4------------------------------------4--4-|
|--2--2--2------------------------------------2--2-|--4--4--4------------------------------------4--4-|

D5
   S  S  S   S  S  S  S  S  S  S  S  S  S  S  S  S    S  S  S   S  S  S  S  S  S  S  S  S S  S  S  S
|-12--------12-------12-------12-------12----------|-12--------12-------12-------12-------12-------------||
|----12--------12-------12-------12-------12----12-|----12--------12-------12-------12-------12----12----||
|-------14--------14-------14-------14-------14----|-------14--------14-------14-------14-------14-------||
|--------------------------------------------------|-----------------------------------------------------||
|--------------------------------------------------|-----------------------------------------------------||
|--------------------------------------------------|-----------------------------------------------------||
|
|  S  S  H.                                   S  S    S  S  H.                           
       S  S
|--------------------------------------------------|-----------------------------------------------------||
|--------------------------------------------------|-----------------------------------------------------||
|--------------------------------------------------|-----------------------------------------------------||
|--0--0--0------------------------------------0--0-|--0--0--0------------------------------------0--0----||
|--0--0--0------------------------------------0--0-|--0--0--0------------------------------------0--0----||
|--0--0--0------------------------------------0--0-|--0--0--0------------------------------------0--0----||

Solo
  E5                                                F#5
   E     S  S  E     E     Q           E     E       E     S  S  E     E     Q           E    E
|-------------------------------------------------|-------------------------------------------------|
|--------------------9----10----------------------|--------------------9----10----------------------|
|--------------9-----------------------9----------|--------------9-----------------------9----------|
|--7-----7s=9--------------------------------9----|--7-----7s=9--------------------------------9----|
|-------------------------------------------------|-------------------------------------------------|
|-------------------------------------------------|-------------------------------------------------|
|
|  S  S  S  S  S  S  S  S  S  S  S  S  S  S  S  S    S  S  S  S  S  S  S  S  S  S  S  S  S S  S  S
|-12-------12-------12-------12-------12----------|-12-------12-------12-------12-------12----------|
|----12-------12-------12-------12-------12----12-|----12-------12-------12-------12-------12----12-|
|-------14-------14-------14-------14-------14----|-------14-------14-------14-------14-------14----|
|-------------------------------------------------|-------------------------------------------------|
|-------------------------------------------------|-------------------------------------------------|
|-------------------------------------------------|-------------------------------------------------|
|
| Gtr III
|  S  S  S  S  E     S  S  S  S  E     S  S  S  S    S  S  S  S  E     S  S  S  S  E     S S  S  S
|-------------------------------------------------|-------------------------------------------------|
|-------------------------------------------------|-------------------------------------------------|
|-------------------------------------------------|-------------------------------------------------|
|--2--2--2--2--2-----2--2--2--2--2-----2--2--2--2-|--4--4--4--4--4-----4--4--4--4--4-----4--4--4--4-|
|--2--2--2--2--2-----2--2--2--2--2-----2--2--2--2-|--4--4--4--4--4-----4--4--4--4--4-----4--4--4--4-|
|--2--2--2--2--2-----2--2--2--2--2-----2--2--2--2-|--4--4--4--4--4-----4--4--4--4--4-----4--4--4--4-|

D5
   Q           Q           Q           Q             Q           Q           Q           Q
|--------------9----------------------------------|--------------9-------------------------------------|
|-12----------------------12----------------------|-12----------------------10-----------9-------------|
|--------------------------------------9----------|----------------------------------------------------|
|-------------------------------------------------|----------------------------------------------------|
|-------------------------------------------------|----------------------------------------------------|
|-------------------------------------------------|----------------------------------------------------|
|
|  S  S  S  S  S  S  S  S  S  S  S  S  S  S  S  S    S  S  S  S  S  S  S  S  S  S  S  S  S S  S  S
|-12-------12-------12-------12-------12----------|-12-------12-------12-------12-------12-------------|
|----12-------12-------12-------12-------12----12-|----12-------12-------12-------12-------12----12----|
|-------14-------14-------14-------14-------14----|-------14-------14-------14-------14-------14-------|
|-------------------------------------------------|----------------------------------------------------|
|-------------------------------------------------|----------------------------------------------------|
|-------------------------------------------------|----------------------------------------------------|
|
|  S  S  S  S  E     S  S  S  S  E     S  S  S  S    S  S  S  S  E     S  S  S  S  E     S S  S  S
|-------------------------------------------------|----------------------------------------------------|
|-------------------------------------------------|----------------------------------------------------|
|-------------------------------------------------|----------------------------------------------------|
|--0--0--0--0--0-----0--0--0--0--0-----0--0--0--0-|--0--0--0--0--0-----0--0--0--0--0-----0--0--0--0----|
|--0--0--0--0--0-----0--0--0--0--0-----0--0--0--0-|--0--0--0--0--0-----0--0--0--0--0-----0--0--0--0----|
|--0--0--0--0--0-----0--0--0--0--0-----0--0--0--0-|--0--0--0--0--0-----0--0--0--0--0-----0--0--0--0----|

E5                                                F#5
   E     S  S  E     E     Q           E     E       Q           Q           Q           Q
|-------------------------------------------------|--------------9----------12----------------------|
|--------------------9----10-----------9----------|-12----------------------------------10----------|
|--------------9-----------------------------9----|-------------------------------------------------|
|--7-----7s=9-------------------------------------|-------------------------------------------------|
|-------------------------------------------------|-------------------------------------------------|
|-------------------------------------------------|-------------------------------------------------|
|
|  S  S  S  S  S  S  S  S  S  S  S  S  S  S  S  S    S  S  S  S  S  S  S  S  S  S  S  S  S S  S  S
|-12-------12-------12-------12-------12----------|-12-------12-------12-------12-------12----------|
|----12-------12-------12-------12-------12----12-|----12-------12-------12-------12-------12----12-|
|-------14-------14-------14-------14-------14----|-------14-------14-------14-------14-------14----|
|-------------------------------------------------|-------------------------------------------------|
|-------------------------------------------------|-------------------------------------------------|
|-------------------------------------------------|-------------------------------------------------|
|
|  S  S  S  S  E     S  S  S  S  E     S  S  S  S    S  S  S  S  E     S  S  S  S  E     S S  S  S
|-------------------------------------------------|-------------------------------------------------|
|-------------------------------------------------|-------------------------------------------------|
|-------------------------------------------------|-------------------------------------------------|
|--2--2--2--2--2-----2--2--2--2--2-----2--2--2--2-|--4--4--4--4--4-----4--4--4--4--4-----4--4--4--4-|
|--2--2--2--2--2-----2--2--2--2--2-----2--2--2--2-|--4--4--4--4--4-----4--4--4--4--4-----4--4--4--4-|
|--2--2--2--2--2-----2--2--2--2--2-----2--2--2--2-|--4--4--4--4--4-----4--4--4--4--4-----4--4--4--4-|

D5
   Q           Q           Q           Q             Q           Q           Q           Q
|-17----------16----------------------------------|-17----------16-------------------------------------|
|-------------------------17----------14----------|-------------------------17----------14-------------|
|-------------------------------------------------|----------------------------------------------------|
|-------------------------------------------------|----------------------------------------------------|
|-------------------------------------------------|----------------------------------------------------|
|-------------------------------------------------|----------------------------------------------------|
|
|  S  S  S  S  S  S  S  S  S  S  S  S  S  S  S  S    S  S  S  S  S  S  S  S  S  S  S  S  S S  S  S
|-12-------12-------12-------12-------12----------|-12-------12-------12-------12-------12-------------|
|----12-------12-------12-------12-------12----12-|----12-------12-------12-------12-------12----12----|
|-------14-------14-------14-------14-------14----|-------14-------14-------14-------14-------14-------|
|-------------------------------------------------|----------------------------------------------------|
|-------------------------------------------------|----------------------------------------------------|
|-------------------------------------------------|----------------------------------------------------|
|
|  S  S  S  S  E     S  S  S  S  E     S  S  S  S    S  S  S  S  E     S  S  S  S  E     S S  S  S
|-------------------------------------------------|----------------------------------------------------|
|-------------------------------------------------|----------------------------------------------------|
|-------------------------------------------------|----------------------------------------------------|
|--0--0--0--0--0-----0--0--0--0--0-----0--0--0--0-|--0--0--0--0--0-----0--0--0--0--0-----0--0--0--0----|
|--0--0--0--0--0-----0--0--0--0--0-----0--0--0--0-|--0--0--0--0--0-----0--0--0--0--0-----0--0--0--0----|
|--0--0--0--0--0-----0--0--0--0--0-----0--0--0--0-|--0--0--0--0--0-----0--0--0--0--0-----0--0--0--0----|

E5                                                F#5
   S  S  S  S  S  S  S  S  S  S  S  S  S  S  S  S    S  S  S  S  S  S  S  S  S  S  S  S  S S  S  S
|-12-------12-------12-------12-------12----------|-12-------12-------12-------12-------12----------|
|----12-------12-------12-------12-------12----12-|----12-------12-------12-------12-------12----12-|
|-------14-------14-------14-------14-------14----|-------14-------14-------14-------14-------14----|
|-------------------------------------------------|-------------------------------------------------|
|-------------------------------------------------|-------------------------------------------------|
|-------------------------------------------------|-------------------------------------------------|
|
| Gtrs II, III
|  W                                                 W
|-------------------------------------------------|-------------------------------------------------|
|-------------------------------------------------|-------------------------------------------------|
|-------------------------------------------------|-------------------------------------------------|
|--2----------------------------------------------|--4----------------------------------------------|
|--2----------------------------------------------|--4----------------------------------------------|
|--2----------------------------------------------|--4----------------------------------------------|

D5                                        B5      C#5
  S S S E S S E S S E S S S   S S S E S S E   S S E     S  S  S
|-------9-----9-----9-------|-------7-----7-------7---------------|
|---7-----7-----7-----7---7-|---7-----7-------7---------7-----7---|
|-9---9-----9-----9-----9---|-9---9-----9-------9----------9------|
|---------------------------|-------------------------------------|
|---------------------------|-------------------------------------|
|---------------------------|-------------------------------------|
|
| W                           H             S S S S  S  S  S  S
|---------------------------|-------------------------------------|
|---------------------------|-------------------------------------|
|---------------------------|-------------------------------------|
|-0-------------------------|-0-------------9-9-9-9-11-11-11-11---|
|-0-------------------------|-0-------------9-9-9-9-11-11-11-11---|
|-0-------------------------|-0-------------9-9-9-9-11-11-11-11---|

Chorus
    B5                C#5
     e    e   e   e    e     e     e     e
||--------------------------------------------|
||o-10---10---9---9---10----10-----9-----9----|
||--------------------------------------------|
||--------------------------------------------|
||o-------------------------------------------|
||--------------------------------------------|
|
|    S S  S S S S S S  S  S  S  S  S  S  S  S
||--------------------------------------------|
||o-------------------------------------------|
||--------------------------------------------|
||---9-9--9-9-9-9-9-9-11-11-11-11-11-11-11-11-|
||o--9-9--9-9-9-9-9-9-11-11-11-11-11-11-11-11-|
||---9-9--9-9-9-9-9-9-11-11-11-11-11-11-11-11-|
|
|   Gtr III
|    S S  S S S S S S  S  S  S  S  S  S  S  S
||--------------------------------------------|
||o-------------------------------------------|
||--------------------------------------------|
||---9-9--9-9-9-9-9-9-11-11-11-11-11-11-11-11-|
||o--9-9--9-9-9-9-9-9-11-11-11-11-11-11-11-11-|
||---9-9--9-9-9-9-9-9-11-11-11-11-11-11-11-11-|

F#5                     A5
   e     e     e     e     H
|---------------------------------------------------|
|-10----10-----9-----9------------------------------|
|-------------------------10------------------------|
|---------------------------------------------------|
|---------------------------------------------------|
|---------------------------------------------------|
|
|  S  S  S  S  S  S  S  S  S  S  S  S  S  S  S  S
|---------------------------------------------------|
|---------------------------------------------------|
|---------------------------------------------------|
|--4--4--4--4--4--4--4--4--7--7--7--7--7--7--7--7---|
|--4--4--4--4--4--4--4--4--7--7--7--7--7--7--7--7---|
|--4--4--4--4--4--4--4--4--7--7--7--7--7--7--7--7---|
|
|  S  S  S  S  S  S  S  S  S  S  S  S  S  S  S  S
|---------------------------------------------------|
|---------------------------------------------------|
|-11-11-11-11-11-11-11-11-14-14-14-14-14-14-14-14\--|
|-11-11-11-11-11-11-11-11-14-14-14-14-14-14-14-14---|
|--9--9--9--9--9--9--9--9-12-12-12-12-12-12-12-12\--|
|---------------------------------------------------|

B5           C#5
  E  e   e   e    e     e     e     e
|----------------------------------------|
|---10---9---9---10----10-----9-----9----|
|----------------------------------------|
|----------------------------------------|
|----------------------------------------|
|----------------------------------------|
|
| E  S S S S S S  S  S  S  S  S  S  S  S
|----------------------------------------|
|----------------------------------------|
|----------------------------------------|
|----9-9-9-9-9-9-11-11-11-11-11-11-11-11-|
|----9-9-9-9-9-9-11-11-11-11-11-11-11-11-|
|----9-9-9-9-9-9-11-11-11-11-11-11-11-11-|
|
| E  S S S S S S  S  S  S  S  S  S  S  S
|----------------------------------------|
|----------------------------------------|
|----------------------------------------|
|----9-9-9-9-9-9-11-11-11-11-11-11-11-11-|
|----9-9-9-9-9-9-11-11-11-11-11-11-11-11-|
|----9-9-9-9-9-9-11-11-11-11-11-11-11-11-|

F#5                     E5
   e     e     e     e    E    S  S  S  S E
|-------------------------9---12-10------------||
|-10----10-----9-----9--------------10-12-9---o||
|----------------------------------------------||
|----------------------------------------------||
|---------------------------------------------o||
|----------------------------------------------||
|
|  S  S  S  S  S  S  S  S S S  S  S  S  S S S
|----------------------------------------------||
|---------------------------------------------o||
|----------------------------------------------||
|--4--4--4--4--4--4--4--4-2-2--2--2--2--2-2-2--||
|--4--4--4--4--4--4--4--4-2-2--2--2--2--2-2-2-o||
|--4--4--4--4--4--4--4--4-2-2--2--2--2--2-2-2--||
|
|  S  S  S  S  S  S  S  S S S  S  S  S  S S S
|----------------------------------------------||
|---------------------------------------------o||
|-11-11-11-11-11-11-11-11-9-9--9--9--9--9-9-9--||
|-11-11-11-11-11-11-11-11-9-9--9--9--9--9-9-9--||
|--9--9--9--9--9--9--9--9-7-7--7--7--7--7-7-7-o||
|----------------------------------------------||

D5                                                        F#5
  S S S E S S E S S E S S S    S  S S E S S E S S E S S S   W
|-------9-----9-----9-------|---------7-----7-----7-------|-9----*|
|---7-----7-----7-----7---7-|-----7-----7-----7-----7---7-|-7----*|
|-9---9-----9-----9-----9---|--9----9-----9-----9-----9---|-9----*|
|---------------------------|-----------------------------|------*|
|---------------------------|-----------------------------|------*|
|---------------------------|-----------------------------|------*|
|
| Gtrs II, III
| W                           +W                            W
|---------------------------|-----------------------------|------*|
|---------------------------|-----------------------------|------*|
|---------------------------|-----------------------------|------*|
|-0-------------------------|-(0)-------------------------|-4----*|
|-0-------------------------|-(0)-------------------------|-4----*|
|-0-------------------------|-(0)-------------------------|-4----*|
 
 
Paramore - Emergency :: indexed at Ultimate Guitar.
Emergency tabs @ 911Tabs

About the artist behind Emergency:

Paramore (IPA: /'pærəmɔər/) is an American rock band that formed in Franklin, Tennessee in 2004 consisting of Hayley Williams (lead vocals/keyboard), Josh Farro (lead guitar/backing vocals), Jeremy Davis (bass guitar), and Zac Farro (drums). The group released their debut album All We Know Is Falling in 2005, and their second album Riot! in 2007, which was certified gold in the US and the UK.

Indexed at Wikipedia.

Show us your talent, perform Emergency!

Here you can post a video or audio performance. Tell me more ...
Where can we find your performance? Tell me more ...
Your comment:
Please, log in to post your performance.