Artists by letter: A B C D E F G H I J K L M N O P Q R S T U V W X Y Z 0-9

 
Born For This
This Is Usually played in drop C# but i made it easyer for beginners so im tabbing it in Drop D

***Tuning: Drop D*** (for beginners  match the big middle string (D) To the big 
top string (E) and now your in drop D :)

^ - Bend
  / - Slide Up
  \ - Slide Down   
  ~ - Ring
  . - Stacato[i dont think i spelled that right] (hit strings 1 short time           each)
  x - Dead
  * - Palm Mute

*******  Born For This-Paramore   *******

--Lead--
                     *INTRO*  (First Part)
e|--------------------------------------------------| 2x
B|--------------------------------------------------|
G|--(10^)-8------------------------8-----8----------|
D|-----------11--8--6-10~-10-10-10----10----10------|
A|--------------------------------------------------|
D|--------------------------------------------------|

Oh No I Just Keep On Falling (Second Part)

. . . . 2x  . . . . . . . .    All 4x
e|-1-1-1-1---|------------------|
B|-2-2-2-2---|-4-4-4-4-4-4-4-4--|
G|-3-3-3-3---|-6-6-6-6-5-5-5-5--|
D|-----------|------------------|
A|-----------|------------------|
D|-----------|------------------|

It Takes Acquired Minds... (Third Part)

e|-------------------------------------------------------------------------|
B|-------------------------------------------------------------------------|
G|-------------------------------------------------------------------------|
D|---4~--1~--4~---44-44-44-44-4-4-66-66-66-66-6-6----8\--8\----------------|
A|---4~--1~--4~---44-44-44-44-4-4-66-66-66-66-6-6----8\--8\----------------|
D|---4~--1~--4~---44-44-44-44-4-4-66-66-66-66-6-6----8\--8\----------------|
                  .. .. .. .. . . .. .. .. .. . .

-Chorus- Everybody Sing..... (Fourth Part)
   4x     8x   8x       4x    8x    8x
e|------|----|----|----------|----|-----|-------------------------------|
B|------|----|----|----------|----|-----|-------------------------------|
G|------|-10-|--8-|--6xxx----|-10-|--13-|-------------------------------|
D|--4xxx|----|----|----------|----|-----|-------------------------------|
A|--4xxx|-8--|--6-|--4xxx----|-8--|--11-|-------------------------------|
D|--4xxx|----|----|----------|----|-----|-------------------------------|

4x     8x   8x       4x    8x    8x
e|------|----|----|----------|----|-----|-------------------------------|
B|------|----|----|----------|----|-----|-------------------------------|
G|------|-10-|--8-|--6666----|-10-|--13-|-13~---------------------------|
D|--4444|----|----|----------|----|-----|-------------------------------|
A|--4444|-8--|--6-|--4444----|-8--|--11-|-11~---------------------------|
D|--4444|----|----|----------|----|-----|-------------------------------|



--- Go To 2nd Part
--- Go To 3rd Part
--- Go To 4th Part
--- Go To 1st Part

Alright So You Think Your Ready...
                                             4x      16x
e|-----------------------------------------|-------|----|
B|-----------------------------------------|-------|----|
G|-----------------------------------------|-------|-13-|
D|--4~--6~--8\-8\---4~-6~---8\-8\-8\-8\--4~|-6666--|----|
A|--4~--6~--8\-8\---4~-6~---8\-8\-8\-8\--4~|-6666--|-11-|
D|--4~--6~--8\-8\---4~-6~---8\-8\-8\-8\--4~|-6666--|----|
                                             ****

-----Chorus---

8x   8x       4x    8x    8x
e|----|----|----------|----|-----|-------------------------------|
B|----|----|----------|----|-----|-------------------------------|
G|-10-|--8-|--6xxx----|-10-|--13-|-------------------------------|
D|----|----|----------|----|-----|-------------------------------|
A|-8--|--6-|--4xxx----|-8--|--11-|-------------------------------|
D|----|----|----------|----|-----|-------------------------------|

4x     8x   8x       4x    8x    8x
e|------|----|----|----------|----|-----|-------------------------------|
B|------|----|----|----------|----|-----|-------------------------------|
G|------|-10-|--8-|--6666----|-10-|--13-|-------------------------------|
D|--4444|----|----|----------|----|-----|-------------------------------|
A|--4444|-8--|--6-|--4444----|-8--|--11-|-------------------------------|
D|--4444|----|----|----------|----|-----|-------------------------------|

4x     8x   8x       4x    8x    8x    8x
e|------|----|----|----------|----|-----|-----|-------------------------|
B|------|----|----|----------|----|-----|-----|-------------------------|
G|------|-10-|--8-|--6666----|-10-|--13-|--10-|-------------------------|
D|--4444|----|----|----------|----|-----|-----|-------------------------|
A|--4444|-8--|--6-|--4444----|-8--|--11-|--8--|-------------------------|
D|--4444|----|----|----------|----|-----|-----|-------------------------|

Outro

e|------------------------------------------|
B|------------------------------------------|
G|------------------------------------------|
D|-8\--8\--4~--1~--8\-----------------------|
A|-8\--8\--4~--1~--8\-----------------------|
D|-8\--8\--4~--1~--8\-----------------------|

The End :) I Will Update Rhythm Later :) Thank You And Problems Contact Me

 
 
Paramore - Born For This :: indexed at Ultimate Guitar.
Born For This tabs @ 911Tabs

About the artist behind Born For This:

Paramore (IPA: /'pærəmɔər/) is an American rock band that formed in Franklin, Tennessee in 2004 consisting of Hayley Williams (lead vocals/keyboard), Josh Farro (lead guitar/backing vocals), Jeremy Davis (bass guitar), and Zac Farro (drums). The group released their debut album All We Know Is Falling in 2005, and their second album Riot! in 2007, which was certified gold in the US and the UK.

Indexed at Wikipedia.

Show us your talent, perform Born For This!

Here you can post a video or audio performance. Tell me more ...
Where can we find your performance? Tell me more ...
Your comment:
Please, log in to post your performance.