Artists by letter: A B C D E F G H I J K L M N O P Q R S T U V W X Y Z 0-9

 
Born For This Live
LIKE my Band Fan Page on FACEBOOK- https://www.facebook.com/SinceAstrid

Tabbed by Francis Twister
From Paramore Philippines(PARAWHORES)

Call/txt me::)09235320353
born for this LIVE - Final Riot

Intro I

GtrI 4x

eb|--------------------------------------------------------------------------|
Bb|--------------------------------------------------------------------------|
Gb|-xxxx-4-4-4-4-4-4-4-4-4-4-4-4-4-4-4-4--1111111111111111-9-9-9-9-9-9-9-9---|
Db|-xxxx-x-x-x-x-x-x-x-x-x"x-x-x-x-x-x-x--x-x-x-x-x-x-x-x"-x-x-x-x-x-x-x-x---|
Ab|-xxxx-2-2-2-2-2-2-2-2-2-2-2-2-2-2-2-2--9-9-9-9-9-9-9-9--7-7-7-7-7-7-7-7---|
Db|-xxxx---------------------------------------------------------------------|

eb|----------------------------------------------------------------------|
Bb|----------------------------------------------------------------------|
Gb|--4-4-4-4-4-4-4-4-4-4-4-4-4-4-4-4--1111111111111111-6-6-6-6-6-6-6-6---|
Db|--x-x-x-x-x-x-x-x-x"x-x-x-x-x-x-x--x-x-x-x-x-x-x-x"-x-x-x-x-x-x-x-x---|
Ab|--2-2-2-2-2-2-2-2-2-2-2-2-2-2-2-2--9-9-9-9-9-9-9-9"-4-4-4-4-4-4-4-4---|
Db|----------------------------------------------------------------------|

GtrII 2x enters
eb|------------------------------------------------------------------------|
Bb|------------------------------------------------------------------------|
Gb|-xxxx-7-7-7-7-7-7-7-7-7-7-7-7-7-7-7-7--7-7-7-7-7-7-7-7"-6-6-6-6-6-6-6-6-|
Db|-xxxx-5-5-5-5-5-5-5-5-5-5-5-5-5-5-5-5--0-0-0-0-0-0-0-0"-4-4-4-4-4-4-4-4-|
Ab|-xxxx-5-5-5-5-5-5-5-5-5-5-5-5-5-5-5-5--0-0-0-0-0-0-0-0"-4-4-4-4-4-4-4-4-|
Db|-xxxx-5-5-5-5-5-5-5-5-5-5-5-5-5-5-5-5--0-0-0-0-0-0-0-0--4-4-4-4-4-4-4-4-|
Then
GtrI
eb|--0-0-0----0-0-0---------------------------|
Bb|--0-0-0----0-0-0---------------------------|
Gb|--9-9-9----9-9-9---------------------------|
Db|--9-9-9----9-9-9---------------------------|
Ab|--7-7-7----7-7-7---------------------------|
Db|-------------------------------------------|
GtrI
eb|--0-0-0----0-0-0---------------------------|
Bb|--0-0-0----0-0-0---------------------------|
Gb|--4-4-4----4-4-4---------------------------|
Db|--2-2-2----2-2-2---------------------------|
Ab|--2-2-2----2-2-2---------------------------|
Db|--2-2-2----2-2-2---------------------------|

IntroII
eb|---------------------------------------|    |-14^(15)14-12-------------------12---12---|
Bb|--7^(8)-5-----------------5---5--------|    |--------------15-12---14-141414---14---14-|
Gb|----------7--4-----6-6-6----6---6------|    |--------------------14--------------------|
Db|---------------7-----------------------|2xor|------------------------------------------|2x
Ab|---------------------------------------|    |------------------------------------------|
Db|---------------------------------------|    |------------------------------------------|

INTRO GTR 2 : TWO TIMES
eb|---------------------------------------------------------------------|
Bb|---------------------------------------------------------------------|
Gb|---------------------------------------------------------------------|
Db|--9-9-9-9-7-7-7-7-0-0-0-0-2-2-2-2--9-9-9-9-7-7-7-7-0-0-0-0-2-2-2-2---|
Ab|--9-9-9-9-7-7-7-7-0-0-0-0-2-2-2-2--9-9-9-9-7-7-7-7-0-0-0-0-2-2-2-2---|
Eb|--9-9-9-9-7-7-7-7-0-0-0-0-2-2-2-2--9-9-9-9-7-7-7-7-0-0-0-0-2-2-2-2---|

Verse-

GtrI
eb|------------------------------------------------------------------|
Bb|------------------------------------------------------------------|
Gb|-11111111111111-1111-7-7-7-7-6-6-6-6--11111111-7-7-7-7-9-9-9-9-9~-|
Db|-9-9-9-9-9-9-9--9-9--5-5-5-5-4-4-4-4--9-9-9-9--5-5-5-5-7-7-7-7----|2x
Ab|------------------------------------------------------------------|
Db|------------------------------------------------------------------|

GtrII
eb|----------------------------------------------------------------------------------------------|
Bb|----------------------------------------------------------------------------------------------|
Gb|-11--------------------------------------------------11/------------------------1111-99-77-44-|
Db|-9/--------------------------------------------------9/---------------------------------------|
Ab|-9/--------------------------------------------------9/--------------------------9-9-77-55-66-|
Db|-9/--------------------------------------------------9/---------------------------------------|

GtrII
eb|----------------------------------------------------------------------------------------------|
Bb|----------------------------------------------------------------------------------------------|
Gb|-11--------------------------------------------------11/--------------------------------------|
Db|-9/--------------------------------------------------9/---------------------------------------|
Ab|-9/--------------------------------------------------9/---------------------------------------|
Db|-9/--------------------------------------------------9/---------------------------------------|
Refrain I
eb|-------------------------------------------------------------------------------|
Bb|-------------------------------------------------------------------------------|
Gb|-4~------11~-------7~------44-44-44-44-4-4"-99-99-99-99-9-9---11/-------11/----|
Db|-2~-------9~-------5~------22-22-22-22-2-2"-77-77-77-77-7-7----9/--------9/----|
Ab|-2~-------9~-------5~------22-22-22-22-2-2"-77-77-77-77-7-7----9/--------9/----|
Db|-2~-------9~-------5~------22-22-22-22-2-2-"77-77-77-77-7-7----9/--------9/----|

Chorus-
GtrI
eb|-------------------------------------------------------|
Bb|-------------------------------------------------------|
Gb|-------------------1111111111111111-9-9-9-9-9-9-9-9----|
Db|-5-----------------------------------------------------|
Ab|-5-555555555555555-9-9-9-9"9-9-9-9--7-7-7-7-7-7-7-7----|
Db|-5-xxxxxxxxxxxxxxx-------------------------------------|

eb|-------------------------------------------------------|
Bb|-------------------------------------------------------|
Gb|-7-----------------1111111111111111-14141414141414----|
Db|-5-----------------------------------------------------|
Ab|-5-555555555555555-9-9-9-9"9-9-9-9--12121212121212"----|
Db|-5-xxxxxxxxxxxxxxx-------------------------------------|

GtrII
eb|-------------------------------------------------------|
Bb|-------------------------------------------------------|
Gb|-------------------------------------------------------|
Db|-5-xxxxxxxxxxxxxxx-0-0-0-0-0-0-0-0"-4-4-4-4-4-4-4-4----|
Ab|-5-555555555555555-0-0-0-0-0-0-0-0"-4-4-4-4-4-4-4-4----|
Db|-5-xxxxxxxxxxxxxxx-0-0-0-0-0-0-0-0"-4-4-4-4-4-4-4-4----|

eb|-------------------------------------------------------|
Bb|-------------------------------------------------------|
Gb|-------------------------------------------------------|
Db|-5-xxxxxxxxxxxxxxx-9-9-9-9-9-9-9-9"-7-7-7-7-7-7-7-7----|
Ab|-5-555555555555555-9-9-9-9-9-9-9-9"-7-7-7-7-7-7-7-7----|
Db|-5-xxxxxxxxxxxxxxx-9-9-9-9-9-9-9-9"-7-7-7-7-7-7-7-7----|

GtrI
eb|-------------------------------------------------------|
Bb|-------------------------------------------------------|
Gb|-7-777777777777777-1111111111111111-9-9-9-9-9-9-9-9----|
Db|-------------------------------------------------------|
Ab|-5-555555555555555-9-9-9-9"9-9-9-9--7-7-7-7-7-7-7-7----|
Db|-------------------------------------------------------|

eb|-------------------------------------------------------|
Bb|-------------------------------------------------------|
Gb|-7-777777777777777-1111111111111111-14141414141414-----|
Db|-------------------------------------------------------|
Ab|-5-555555555555555-9-9-9-9"9-9-9-9--12121212121212"----|
Db|-------------------------------------------------------|

GtrII
eb|-------------------------------------------------------|
Bb|-------------------------------------------------------|
Gb|-------------------------------------------------------|
Db|-5-555555555555555-0-0-0-0-0-0-0-0"-4-4-4-4-4-4-4-4----|
Ab|-5-555555555555555-0-0-0-0-0-0-0-0"-4-4-4-4-4-4-4-4----|
Db|-5-555555555555555-0-0-0-0-0-0-0-0"-4-4-4-4-4-4-4-4----|

eb|-------------------------------------------------------|
Bb|-------------------------------------------------------|
Gb|-------------------------------------------------------|
Db|-5-555555555555555-9-9-9-9-9-9-9-9"-7-7-7-7-7-7-7-7-5~-|
Ab|-5-555555555555555-9-9-9-9-9-9-9-9"-7-7-7-7-7-7-7-7-5~-|
Db|-5-555555555555555-9-9-9-9-9-9-9-9"-7-7-7-7-7-7-7-7-5~-|

Repeat Verse
gTRi dO VERSE

GtrII
eb|-----------------------------------------------------------------|
Bb|-----------------------------------------------------------------|
Gb|-----------------------------------------------------------------|
Db|-9-9-9-9-9-99"9-9-9-9-9-9-9-9-9-9-5-5-5-5-5-4-4-4-4--------------|4X
Ab|-9-9-9-9-9-99"9-9-9-9-9-9-9-9-9-9-5-5-5-5-5-4-4-4-4--------------|
Db|-9-9-9-9-9-99"9-9-9-9-9-9-9-9-9-9-5-5-5-5-5-4-4-4-4--------------|





-refrain

gTRS Do Chorus

Do Intro2

Chorus-
GtrI
eb|----------------------------------------------------------------------------------------------|
Bb|----------------------------------------------------------------------------------------------|
Gb|-7~---9~---11------4------7~-----6~-----11------4------7-------6~------77777777-6666666666666-|
Db|-5~---7~---9"xx-x--2-x-xx"5~-----4~-----9"xx-x--2-x-xx"5-x-xx--4~-x-xx"55555555-4444444444444-|
Ab|-5~---7~---9"xx-x--2-x-xx"5~-----4~-----9"xx-x--2-x-xx"5-x-xx--4~-x-xx"55555555-4444444444444-|
Db|-5~---7~---9"xx-x--2-x-xx"5~-----4~-----9"xx-x--2-x-xx"5-x-xx--4~-x-xx"55555555-4444444444444-|
                                                                                   ***********

GtrII
GtrII
eb|--------------------------------------------------------------------------------------------|
Bb|--------------------------------------------------------------------------------------------|
Gb|--------------------------------------------------------------------------------------------|
Db|-5~---7~---9"xx-x--2-x-xx"5~----7~----9"xx-x--2-x-xx"5-x-xx--7~-x-xx"55555555-4444444444444-|
Ab|-5~---7~---9"xx-x--2-x-xx"5~----7~----9"xx-x--2-x-xx"5-x-xx--7~-x-xx"55555555-4444444444444-|
Db|-5~---7~---9"xx-x--2-x-xx"5~----7~----9"xx-x--2-x-xx"5-x-xx--7~-x-xx"55555555-4444444444444-|
                                                                                 ***********

Chorus

eb|-1010101010101010-------------------------------------|
Bb|-8-8-8-8-8-8-8-8--------------------------------------|
Gb|-7-7-7-7-7-7-7-7--1111111111111111-9-9-9-9-9-9-9-9----|
Db|------------------------------------------------------|
Ab|------------------9-9-9-9"9-9-9-9--7-7-7-7-7-7-7-7----|
Db|------------------------------------------------------|

eb|-------------------------------------------------------|
Bb|-------------------------------------------------------|
Gb|-7-----------------1111111111111111-14141414141414-----|
Db|-5-----------------------------------------------------|
Ab|-5-555555555555555-9-9-9-9"9-9-9-9--12121212121212"----|
Db|-5-xxxxxxxxxxxxxxx-------------------------------------|

GtrII Do chorus

Do CHorus 2
[email protected] last chorus part

eb|--------------------|
Bb|--------------------|
Gb|-7~-9"11~--111111---|
Db|--------------------|
Ab|"5~-7~-9~--9-9-9----|
Db|--------------------|

End with
GtrII
eb|--------------------------------------------------------------------------------------------|
Bb|-----------------------------------------------------15---15---15---------------------------|
Gb|-----------------------------------------------------14---14---14---------------------------|
Db|--9"xx-x--2-x-xx"5-x-xx--4~-x-xx"------------------------------------xxx--------------------|
Ab|--9"xx-x--2-x-xx"5-x-xx--4~-x-xx"------------------------------------xxx--------------------|
Db|--9"xx-x--2-x-xx"5-x-xx--4~-x-xx"------------------------------------xxx--------------------|

eb|-------------------------1717----1717-17----|
Bb|--15---15---15---1515-15------15---------15-|
Gb|--14---14---14------------------------------|
Db|--------------------------------------------|
Ab|--------------------------------------------|
Db|--------------------------------------------|

GtrII
eb|--------------------------------------------------------------------------------------------|
Bb|--------------------------------------------------------------------------------------------|
Gb|--------------------------------------------------------------------------------------------|
Db|--9"xx-x--2-x-xx"5-x-xx--4~-x-xx"--7-9-7"-7-9-7--7-9----9----9---9--xxx-7-9-7"-7-9-7--7-9---|
Ab|--9"xx-x--2-x-xx"5-x-xx--4~-x-xx"--7-9-7"-7-9-7--7-9----9----9---9--xxx-7-9-7"-7-9-7--7-9---|
Db|--9"xx-x--2-x-xx"5-x-xx--4~-x-xx"--7-9-7"-7-9-7--7-9----9----9---9--xxx-7-9-7"-7-9-7--7-9---|

eb|-----------------------------------------|
Bb|-----------------------------------------|
Gb|-----------------------------------------|
Db|--9-xxx-9-xxx-9--xxx-7-9-7"-7-9-7--7-9---|
Ab|--9-xxx-9-xxx-9--xxx-7-9-7"-7-9-7--7-9---|
Db|--9-xxx-9-xxx-9--xxx-7-9-7"-7-9-7--7-9---|
 
 
Paramore - Born For This Live :: indexed at Ultimate Guitar.
Born For This Live tabs @ 911Tabs

About the artist behind Born For This Live:

Paramore (IPA: /'pærəmɔər/) is an American rock band that formed in Franklin, Tennessee in 2004 consisting of Hayley Williams (lead vocals/keyboard), Josh Farro (lead guitar/backing vocals), Jeremy Davis (bass guitar), and Zac Farro (drums). The group released their debut album All We Know Is Falling in 2005, and their second album Riot! in 2007, which was certified gold in the US and the UK.

Indexed at Wikipedia.

Show us your talent, perform Born For This Live!

Here you can post a video or audio performance. Tell me more ...
Where can we find your performance? Tell me more ...
Your comment:
Please, log in to post your performance.