Artists by letter: A B C D E F G H I J K L M N O P Q R S T U V W X Y Z 0-9

 
Aint It Fun
[Verse 1]
E|-----------------------|
B|-----------------------|
G|-----4h6-------4h6-----|   repeat
D|-6----------6----------|
A|---7----------7--------|
D|-----------------------|

E|------------------------|
B|------------------------|
G|-----4h6-------4h6-6----|   before chorus
D|-6----------6-----------|
A|---7----------7---------|
D|------------------------|

[Chorus]
ain't it fun, living in the real world
E|-------------------------------------|
B|-------------------------------------|
G|-------------------------------------|
D|-7-7-7-7-7-7-7--11-11-11-11--9-9-9-9-| repeat
A|-7-7-7-7-7-7-7--11-11-11-11--9-9-9-9-|
D|-7-7-7-7-7-7-7--11-11-11-11--9-9-9-9-|

E|-------------------------------------|
B|-------------------------------------|
G|-16-16--13---16-16--11---------------| you hear a guitar with a bit of a clean
D|-------------------------------------| sound playing this sometimes.
A|-------------------------------------|
D|-------------------------------------|

[Verse 2]

[Chorus]
ain't it fun, living in the real world
E|-------------------------------------|
B|-------------------------------------|
G|-------------------------------------|
D|-7-7-7-7-7-7-7--11-11-11-11--9-9-9-9-| repeat
A|-7-7-7-7-7-7-7--11-11-11-11--9-9-9-9-|
D|-7-7-7-7-7-7-7--11-11-11-11--9-9-9-9-|

E|-------------------------------------|
B|-------------------------------------|
G|-16-16--13---16-16--11---------------| you hear a guitar with a bit of a clean
D|-------------------------------------| sound playing this sometimes.
A|-------------------------------------|
D|-------------------------------------|

[Bridge]
Don't go crying to your mama cause you're on your own in the real world

  palm mute
E|--------------------|        |------------|
B|--------------------|        |------------|
G|--------------------| repeat |------------| sometimes he changes to 7 and goes
D|-2-2-2-2-2-2-2------|        |-7-7-7-7----| back to 2
A|-2-2-2-2-2-2-2------|        |-7-7-7-7----|
D|-2-2-2-2-2-2-2------|        |-7-7-7-7----|

Ain't it fun
Ain't it fun
Baby, now you're one of us
Ain't it fun
Ain't it fun

[Chorus]
ain't it fun, living in the real world
E|-------------------------------------|
B|-------------------------------------|
G|-------------------------------------|
D|-7-7-7-7-7-7-7--11-11-11-11--9-9-9-9-| repeat
A|-7-7-7-7-7-7-7--11-11-11-11--9-9-9-9-|
D|-7-7-7-7-7-7-7--11-11-11-11--9-9-9-9-|

E|-------------------------------------|
B|-------------------------------------|
G|-16-16--13---16-16--11---------------|
D|-------------------------------------|
A|-------------------------------------|
D|-------------------------------------|

(at the end there is some kind of solo but I haven't figured it out yet but you can just
play the chorus chords there.)

************************************

| h  Hammer-on

************************************
 
 
Paramore - Aint It Fun :: indexed at Ultimate Guitar.
Aint It Fun tabs @ 911Tabs

About the artist behind Aint It Fun:

Paramore (IPA: /'pærəmɔər/) is an American rock band that formed in Franklin, Tennessee in 2004 consisting of Hayley Williams (lead vocals/keyboard), Josh Farro (lead guitar/backing vocals), Jeremy Davis (bass guitar), and Zac Farro (drums). The group released their debut album All We Know Is Falling in 2005, and their second album Riot! in 2007, which was certified gold in the US and the UK.

Indexed at Wikipedia.

Show us your talent, perform Aint It Fun!

Here you can post a video or audio performance. Tell me more ...
Where can we find your performance? Tell me more ...
Your comment:
Please, log in to post your performance.