Artists by letter: A B C D E F G H I J K L M N O P Q R S T U V W X Y Z 0-9

 
Lose My Mind Acoustic
Artist: Pacific Air
Song: Lose My Mind
Album: Stop Talking
Tuning: Standard

e |---------------------------------------------------------------|
B |--9--8---------------------------9--8--------------8--------8--|
G |-------9--7--7-7-9-7--7-7-9--5---------9--7--7-7-9---7-7--9----|
D |---------------------------------------------------------------|
A |---------------------------------------------------------------|     
E |---------------------------------------------------------------|

e |--1----0----0-----------|
B |--1----1----1-----------|
G |--2----2----0-----------|
D |--3----2----2-----------|
A |--3----0----3-----------|    
E |--1----x----x-----------|


I've been thinking about the ocean
And how cold it's been 
I could steal my father's sweater
But I'm way too thin to be only one in

I know I want to take a bath
Without the water turning black
I know I want to be a man
Oh, before, oh, before, before I lose my mind

Chorus

e |---------------------------------------------------------------|
B |--9--8---------------------------9--8--------------8--------8--|
G |-------9--7--7-7-9-7--7-7-9--5---------9--7--7-7-9---7-7--9----|
D |---------------------------------------------------------------|
A |---------------------------------------------------------------|     
E |---------------------------------------------------------------|

e |--1----0----0-----------|
B |--1----1----1-----------|
G |--2----2----0-----------|
D |--3----2----2-----------|
A |--3----0----3-----------|    
E |--1----x----x-----------|

Before I lose my mind
Before I lose my mind
Before I lose my mind

Verse 2

I've been thinking about my future
And how cold it's been
When I look into a mirror

I can only see my reflection
I know I want to take a bath
Without my footsteps turning black
I know I want to take a chance
Oh, before, oh, before, before I lose my mind

Bridge

e |---0------0------------|
B |---0------1------------|
G |---0------2------------|
D |---2------2------------|
A |---2------0------------|     
E |---x------x------------|

Until I reach my goal 
I quit my job, I've got nowhere else to go

Chorus (x2)


 
 
Pacific Air - Lose My Mind Acoustic :: indexed at Ultimate Guitar.
Lose My Mind Acoustic tabs @ 911Tabs
People who played Pacific Air - Lose My Mind Acoustic also played these songs by Pacific Air:
Float Chords, Roses Chords, Bear Chords, Float Chords, Lose My Mind Acoustic Tab, Move Tab

Quick tip, so you can enjoy Lose My Mind Acoustic even more:

YourChords.com Guitar Chords and Tabs Archive is currently indexing over 240'000 songs from 21'000+ different artists. And new chords just keep on coming in, so you will surely never run out of them.

Show us your talent, perform Lose My Mind Acoustic!

Here you can post a video or audio performance. Tell me more ...
Where can we find your performance? Tell me more ...
Your comment:
Please, log in to post your performance.