Artists by letter: A B C D E F G H I J K L M N O P Q R S T U V W X Y Z 0-9

 
Amazing Grace
-------------------------------------------------------------------------------
                             Amazing grace(chord + tab)
-------------------------------------------------------------------------------

It's my first time tabbing finger style so enjoy. :)
Just follow the standard fingering for the chords and you can play it easily too.
There's some pinky finger work(optional) too so try to do some warm up for you pinky first.

Tuning: Standard

         C                      C                   F                  
e|-------------------0----------0--------0-----------------------------------|
B|-------1--------1-----3-1-------------------3-----1--------1---------------|
G|--0----------0----------------------0-------------------2--------2---------|
D|----------2----------------------2-------------------3---------------------|
A|-------3----------------------3-------------------3------------------------|
E|---------------------------------------------------------------------------|
     A  ma         zinggggg   grace          how   sweet          the

     C                    Am                       Am
e|----------------------------------------0--------0--------0----------0-----|
B|------------1-----------1--------1---------1----------------------3--------|
G|---0-----0---------0----------2------------------------2-------------------|
D|------2--------------------2------------------------2----------------------|
A|---3--------------------0------------------------0-------------------------|
E|---------------------------------------------------------------------------|
     sound          That saved             a       wretch           like 

     G                            C                       C
e|---3-----------3------0--3------3-------0----0----------0--------0---------|
B|------------0-------------------------1--------3-1------------1------------|
G|---------0-------------------------0-----------------------0---------------|
D|------0--------------------------------------------------------------------|
A|--------------------------------3-----------------------3------------------|
E|---3-----------------------------------------------------------------------|
     me                   I       once           was      lost,      
        F                 C                 Am                G 
e|------------------------------------------------------0--------------------|
B|--3---1--------1-----------------1--------1--------1--------3-----------3--|
G|------------2-------2---0-----0--------0--------2--------------------0-----|
D|---------3-----------------2-----------------2--------------------0--------|
A|------3-----------------3-----------------0--------------------2-----------|
E|------------------------------------------------------------3--------------|
    but now           I'm found          Was blind,     but   now         
      C
e|-----------------0---------------------------------------------------------|
B|-3---1--------1-----1------------------------------------------------------|
G|-----------0-----------0---------------------------------------------------|
D|--------2-----------------2------------------------------------------------|
A|-----3-----------------------3---------------------------------------------|
E|---------------------------------------------------------------------------|
   I  see



************************************

| /   slide up
| \   slide down
| h   hammer-on
| p   pull-off
| ~   vibrato
| +   harmonic
| x   Mute note
| b   Bend
| pb  Pre-bend
| br  Bend release
| pbr Pre-bend release
| brb Bend release bend

************************************
 
 
Na - Amazing Grace :: indexed at Ultimate Guitar.
Amazing Grace tabs @ 911Tabs
People who played Na - Amazing Grace also played these songs by Na:
Amazing Grace Tab

Quick tip, so you can enjoy Amazing Grace even more:

You might want to transpose the song if it is too high or too low for you to sing. Just click the desired option while playing a song and all the chords will automatically be transponded into a new key.

Show us your talent, perform Amazing Grace!

Here you can post a video or audio performance. Tell me more ...
Where can we find your performance? Tell me more ...
Your comment:
Please, log in to post your performance.