Artists by letter: A B C D E F G H I J K L M N O P Q R S T U V W X Y Z 0-9

 
Manos Blancas
 

Manos blancas , carnes siguen cayendo 
C 
en mis ojos
        Min    
 
E------------------
B------------------
G--2---4--2---2----
D-2--5---2--5---2--
A------------------
E------------------

Siento el mar de tu sonrisa calma
C
Sonriendo
       Min   
(Rep. el reff)

Tratando de explicar que no hay por que
C              Am   F
llorar , tu mano
   G

Angel tenue , tu sonrisa es blanca en 
C        
mis sueños
        Min
(Rep. el reff)

Acaricias mi cabello fragil de nuevo
C                                Min
(Rep. reff)

Tratando de calmar mi llanto de ansiedad
C             Am F                 G

Tratando de explicar que no hay por que
C               Am F  
llorar , tu mano
    G

E------------------------------
B------------------------------
G--5-5-5--4-4-4--3-3-3--2-2-2--   ] REFF 2
D---4-4-4--5-5-5--5-5-5--3-3-3-
A------------------------------
E------------------------------

A A LA ...

Manos Blancas carnes siguen cayendo
C
en mis ojos
         Min

E-----------------------------
B----------3------------------
G---5--7-9--4-----------------
D--2----------5-5-2-----------
A-----------------------------
E-----------------------------

Siento el mar de tu mirada calma
C
sonriendo
      Min

E----------------------------
B--------3-------------------
G---4-5---4------------------
D--2--------5-5-2------------
A----------------------------
E----------------------------

Tratando de calmar su ausencia una 
C             Am F
vez mas
     G

Tratando de explicar que no hay por
C               Am  F
que llorar , tu mano
        G

Repites el reff 2 y ya la tienes en tus manos. Bueno 
los reff no estan muy bien sacados pero se asemejan ,de 
todos modos intentalo y le pones tu toque personal.

Con todo mi cariño para Charito , la persona mas fuerte
que hay en este planeta, confio en ti. Besos.
 
 
Madre Matilda - Manos Blancas :: indexed at Ultimate Guitar.
Manos Blancas tabs @ 911Tabs

Quick tip, so you can enjoy Manos Blancas even more:

You might want to transpose the song if it is too high or too low for you to sing. Just click the desired option while playing a song and all the chords will automatically be transponded into a new key.

Show us your talent, perform Manos Blancas!

Here you can post a video or audio performance. Tell me more ...
Where can we find your performance? Tell me more ...
Your comment:
Please, log in to post your performance.