Artists by letter: A B C D E F G H I J K L M N O P Q R S T U V W X Y Z 0-9

 
Midnight City
-------------------------------------------------------------------------------
                             Midnight City - M83
-------------------------------------------------------------------------------

First tab so be nice ;) Enjoy my version of Midnight City

Tuning: Standard

e|-----2-----------2-----2---------2-----2----------2-----2----------2-------|
B|---------5-3--0-----------5-3-0-----------5-3--0-----------5-3--0----------|
G|---------------------------------------------------------------------------|
D|---------------------------------------------------------------------------|
A|--------------------2---------------0--------------------------------------|
E|--3--------------------------------------------------0---------------------|

Repeat this during Intro and Chorus. 

Chords for verses -

    G     Bm    A     Em
e|--3--|--2--|--0--|--0--|---------------------------------------------------|
B|--0--|--3--|--2--|--0--|---------------------------------------------------|
G|--0--|--4--|--2--|--0--|---------------------------------------------------|
D|--0--|--4--|--2--|--2--|---------------------------------------------------|
A|--2--|--2--|--0--|--2--|---------------------------------------------------|
E|--3--|--2--|-----|--0--|---------------------------------------------------|
 
 
M83 - Midnight City :: indexed at Ultimate Guitar.
Midnight City tabs @ 911Tabs
People who played M83 - Midnight City also played these songs by M83:
Kim And Jessie Tab, Midnight City Chords, Too Late Chords, Wait Chords, Oblivion Chords, Soon My Friend Tab

Quick tip, so you can enjoy Midnight City even more:

You might want to transpose the song if it is too high or too low for you to sing. Just click the desired option while playing a song and all the chords will automatically be transponded into a new key.

Show us your talent, perform Midnight City!

Here you can post a video or audio performance. Tell me more ...
Where can we find your performance? Tell me more ...
Your comment:
Please, log in to post your performance.