Artists by letter: A B C D E F G H I J K L M N O P Q R S T U V W X Y Z 0-9

On Her Majestys Secret Service (ver 2) - John Barry


 
On Her Majestys Secret Service
This is the instrumental version used in the opening credits for what is one of my favourite films 
in the James Bond franchise.
A lot of people admire the films. I am certainly one of 'em.

|-----------------|
|-----------------|
|:---------------:|
|:-3---1---------:|
|----------4---3--|
|-----------------|

|---------------------------|----------------------------------------------------------------|
|---------------------------|--------2---1-2-1-----1-----------1-----2-----1-----4-----------|
|:-------1---0-1-0-------2-:|--3---3-----------1-----3---3--3-----3-----3-----3-----1--2--3--|
|:-3---3-----------3---3---:|----------------------------------------------------------------|
|---------------------------|----------------------------------------------------------------|
|---------------------------|----------------------------------------------------------------|
 
|---------------------------|-------9--8-9-8----8-6---6--6--8--6--9--6--11------------|
|--------9--8-9-8-------10--|-11-11----------9------------------------------9-10--11--|
|:-10-10----------10-10----:|---------------------------------------------------------|
|:-------------------------:|---------------------------------------------------------|
|---------------------------|---------------------------------------------------------|
|---------------------------|---------------------------------------------------------|
 
|---------------------------|
|----------------------1----|
|:-------1-1-0-1-0---1-----:|
|:-3---3-----------3-------:|
|---------------------------|
|---------------------------|

|-----------------------8---|
|--------9-9-8-9-8----9-----|
|:-10-10-----------10------:|
|:-------------------------:|
|---------------------------|
|---------------------------|

|-----------------|
|------------1-0--|
|:---0-1---1-----:|
|:-3-------------:|
|-----------------|
|-----------------|
 
|---------------------------|-------9--8-9-8----8-6---6--6--8--6--9--6--11------------|
|--------9--8-9-8-------10--|-11-11----------9------------------------------9-10--11--|
|:-10-10----------10-10----:|---------------------------------------------------------|
|:-------------------------:|---------------------------------------------------------|
|---------------------------|---------------------------------------------------------|
|---------------------------|---------------------------------------------------------|

|-----------------|
|-----------------|
|:---------------:|
|:-8---6---------:|
|----------10--9--|
|-----------------|

|-----------------|
|-----------------|
|-----------------|
|-----------------|
|--8--------------|
|-----------------|

 
 
John Barry - On Her Majestys Secret Service :: indexed at Ultimate Guitar.
On Her Majestys Secret Service tabs @ 911Tabs
People who played John Barry - On Her Majestys Secret Service also played these songs by John Barry:
Somewhere In Time Tab, The Persuaders Tab, Your Love Amazes Me Chords, The Ipcress File Tab, Born Free Chords, If I Had Any Pride Chords

About the artist behind On Her Majestys Secret Service:

John Barry, OBE (born John Barry Prendergast on 3 November 1933 in York, England) is a renowned Golden Globe and five-time Academy Award-winning English film score composer.

Indexed at Wikipedia.

Show us your talent, perform On Her Majestys Secret Service!

Here you can post a video or audio performance. Tell me more ...
Where can we find your performance? Tell me more ...
Your comment:
Please, log in to post your performance.