Artists by letter: A B C D E F G H I J K L M N O P Q R S T U V W X Y Z 0-9

 
Solo Voy
|----------------------------|
|---------12-----------------|
|--8/13-------13----------11-|             x6
|-----------------13-13------|
|----------------------------|
|----------------------------|

B  E  F#  E   B

 B                      E
Solo voy, solo hoy me siento,
  F#             E            B
Colgando del estribo, siempre voy.
 B                                  E
Cortando calles, sin saber quien cruzará
 F#            E            B
Y dejarme, donde quiera llegar.
 B                            E
Yo no saqué boletos, a este infierno
 F#            E       B
Gentes tristes veo, caminar.
 F#                   B
Mi facultad ha sido, esta calle
 F#               B
Quise ser así como soy.

    B
Y como un perro voy,
Siguiendo el sol,
                 E
Sin saber que hacer,
  B
Más pasa el tiempo,
F#       B
Más 25 soy.


Solo:

|------------------------------------------|
|----------------------5-------------------|
|--6--4------4--6--7------7--6--7--6--4----|
|------------------------------------------|
|------------------------------------------|
|------------------------------------------|

|-------------------------------------------------|
|----------5----------------------5---------------|
|-4--6--7----7--6--7/9--6----6--7---7--6--7-6--4--|
|-------------------------------------------------|
|-------------------------------------------------|
|-------------------------------------------------|

|------------------------------------|
|---------------5--------------------|
|--4--4--6--7------7--6--7--6--4-----|
|------------------------------------|
|------------------------------------|
|------------------------------------|

|----------------------------------------------------|
|---------5--------------------------5---------------|
|-4--6--7----7--6--7-7-7-7-6----6--7---7--6--7-6--4--|
|----------------------------------------------------|
|----------------------------------------------------|
|----------------------------------------------------|

De mí rodar, ya ni sé que se hicieron
Esas cosas que pudieron ser, y que no fueron
Más gentes voy conociendo, más solo me siento
Pero siempre busco esa buena satisfacción
Un nomade soy, y un nuevo lugar buscaré
Y como dije mi camino, seguiré
Mi facultad ha sido, esta calle
Quise ser así como soy.


Y como un perro voy,
Siguiendo el sol,
Sin saber que hacer,
Más pasa el tiempo,
Más 25 soy.


Desde mí rodar, ya ni sé que se hicieron
Esas cosas que pudieron ser, y que no fueron
Más gentes voy conociendo, más quiero a mi perro
Pero siempre busco esa buena satisfacción
Un nomade soy, y un nuevo lugar buscaré
Y como dije mi camino, seguiré
Mi facultad ha sido, esta calle
Quise ser así como soy.


Y como un perro voy,
Siguiendo el sol,
Sin saber que hacer,                        x2
Más pasa el tiempo,
Más 25 soy.

solo
 
 
La 25 - Solo Voy :: indexed at Ultimate Guitar.
Solo Voy tabs @ 911Tabs

Quick tip, so you can enjoy Solo Voy even more:

If you don't really know how to deal with "Absus4" chord and his equally confusing brothers, just put the mouse cursor over them and you will be shown a helpful chord diagram.

Show us your talent, perform Solo Voy!

Here you can post a video or audio performance. Tell me more ...
Where can we find your performance? Tell me more ...
Your comment:
Please, log in to post your performance.