Artists by letter: A B C D E F G H I J K L M N O P Q R S T U V W X Y Z 0-9

 
Quiero 25
Bueno gente como va?? aca les dejo el temita para q
toquen con 2 guitarras?una hace quintas y la otra hace triadas?
los solos no los puse por q ya estan en la cuerda?y estan muy
bien sakados ?es muy facil?suert

x5????acorde con su quinta alterada
T???Triada


   G5       T1
Es un buen poema
      G5
me pasaste los tiempos
   G5       T1
dijiste que sea
         G5
todo un tema lento
      T2
      C5
pero yo
        G5 T1
quiero rock
         T3
         D5      C5  T4
cuatro mas dos menos
         G5   Riff 1
y asi empiezoooooo

    G5         T1
Es asi como intento
       G5
encuadrar estos tiempos
        G5      T1
que me rime el momento
        G5
cuando dice el amigo
        C5 T2
quiero rock
         G5 T1
y del mejor
    T3       T4
    D5       C5
24 horas ya voy

pero yo..

quiero 25

     G5         T1
Que dificil se hace
          G5
encontra las palabra
        G5
        T1
que te rime el acento
             G5
cuando terminás
           T2
           C5
no hay caltes que indiquen

el final de la frase
      G5            T1
sólo cuenta una historia

que sea real
     T3                T4
     D5                C5 Riff 1
y verás, alguien entenderá.
         G5     T1
Ya no quiero escuchar
       G5
más palabras raras
       G5        T1
sólo quiero que canten
                 G5
lo que puedo sentir
      C5 T2
yo no sé

donde vas
    T3        T4
    D5        C5
24 horas más voy

pero yo..

quiero 25

Repite el segundo solo
    G5
Ya no es un poema
      G5
y son otros tiempos
      G5
verás tus piernas
                      C5 T5
como moverás, solo dirás

que sea rock
    D5       C5
24 horas ya voy

pero yo..
quiero 25


TRIADAS:

Triada 1: G                          Triada 2: C
E-------------------------   E-----------8---------
B--2---2---22-------------   B----8h10------------- Repetir varias
G--2---2---22--5b--3---3--   G--------------------- veces y rapido
D--------------------5----   D---------------------
A-------------------------   A---------------------
E-------------------------   E---------------------

Triada 3: D                         Triada 4: C
E--10----10------------           E----8----8---------
B--10----10------------           B----8----8---------
G--10----10------------           G----8----8---------
D----------------------           D-------------------
A----------------------           A-------------------
E----------------------           E-------------------

Triada 5: C
E--8-8-8-8-8-8-8-------8-8-8-8-8-8-8----
B--8-8-8-8-8-8-8-------8-8-8-8-8-8-8----
G--8-8-8-8-8-8-8-------8-8-8-8-8-8-8----
D---------------------------------------
A---------------------------------------
E---------------------------------------

 Riff 1:

e|-----3----3-------------
B|------------------------
G|-5br---5b---5-3-5br-3---
D|----------------------5-
A|------------------------
E|------------------------

Bueno ahí esta?no creo q tengo errores pero bueno?
si hay alguno manden mail ?suerte y aguante el Rock and Roll
 
 
La 25 - Quiero 25 :: indexed at Ultimate Guitar.
Quiero 25 tabs @ 911Tabs
People who played La 25 - Quiero 25 also played these songs by La 25:
Quiero 25 Tab, El Vecindario Chords, Barrio Viejo Chords, 25 Horas Chords, Cosas Viejas Chords, Andrajoso Chords

Quick tip, so you can enjoy Quiero 25 even more:

If you spend just 10 seconds to register, you will be able to comment on all the chords and tabs and rate them. You will as well be able to comment on videos of your fellow guitarists and give them ratings from 1 to 5 ... And - of course - you can share your own videos with them and see what they think of you. :)
Click here to join us!

Show us your talent, perform Quiero 25!

Here you can post a video or audio performance. Tell me more ...
Where can we find your performance? Tell me more ...
Your comment:
Please, log in to post your performance.