Artists by letter: A B C D E F G H I J K L M N O P Q R S T U V W X Y Z 0-9

 
Nadie
Intro:
    G   A   G    D
e|--3-3-5-5-3-3--2-2-2-2-----|
B|--3-3-5-5-3-3--3-3-3-3-----|
G|--4-4-6-6-4-4--2-2-2-2-----|
D|--5-5-7-7-5-5--0-0-0-0-----|
A|--5-5-7-7-5-5--------------|
E|--3-3-5-5-3-3--------------|

    G   A   G    D
e|--3-3-5-5-3-3--2-2-2-2-----|
B|--3-3-5-5-3-3--3-3-3-3-----|
G|--4-4-6-6-4-4--2-2-2-2-----|
D|--5-5-7-7-5-5--0-0-0-0-----|
A|--5-5-7-7-5-5--------------|
E|--3-3-5-5-3-3--------------|

    G   A   G    D       A
e|--3-3-5-5-3-3--2-2-2-2-0-0-0-0-|
B|--3-3-5-5-3-3--3-3-3-3-2-2-2-2-|
G|--4-4-6-6-4-4--2-2-2-2-2-2-2-2-|
D|--5-5-7-7-5-5--0-0-0-0-2-2-2-2-|
A|--5-5-7-7-5-5----------0-0-0-0-|
E|--3-3-5-5-3-3------------------|

D                             G
Voy a caminar por donde nadie camino,
D                              G
voy a creer qe te fuiste y que quede solo,
D                             G
despues de todo se qe no estuvo tan mal,
D                       G
haber vivido tanto sin descansar..
         F#                 Bm
es que a veces es mejor anhelar un sueƱo
      E                G       A                  D
que conquistar un mundo y despues no saber que hacer..

    G   A   G
e|--3-3-5-5-3-3--2-2-|
B|--3-3-5-5-3-3--3-3-|
G|--4-4-6-6-4-4--2-3-|
D|--5-5-7-7-5-5--0-0-|
A|--5-5-7-7-5-5------|
E|--3-3-5-5-3-3------|

D                                   G
voy a abrir los portones qe nunca nadie abrio,
D                                   G
me sentare a escuchar hasta que termine el show,
D                           G
me quedare dormido junto a tu bolsillo,
D                              G
despertar mas tarde,O NUNCA DESPERTAR..

F#                     Bm
despues de todo no estuvo tan mal,
E            G        A               D     A
haber vivido..vivido tanto sin descansar..

[Armonica]

D - G - D - G - F# - Bm - E - G - A -D

    A   B
e|--5-5-7-7-5--|
B|--5-5-7-7-5--|
G|--6-6-8-8-6--|
D|--7-7-9-9-7--|
A|--7-7-9-9-7--|
E|--5-5-7-7-5--|

E                             A
voy a trepar por donde nunca nadie trepo,
E                                A
voy a encender el cielo con una luz de fe,
E                           A
para qe me escuchen y llegaremos todos
   E                      A
y pasaremos juntos sin pagar el show,
  G#                  C#m
y cada vez qe lleguen aca ,
    F#               A      B            E
al cielo mirar,resar,  y pedir prosperidad..
B         E   B         E
 prosperidad.. prosperidad..
B        A
 posreridaaaaad

    A   B
e|--5-5-7-7-5-0-|
B|--5-5-7-7-5-0-|
G|--6-6-8-8-6-1-|
D|--7-7-9-9-7-2-|
A|--7-7-9-9-7-2-|
E|--5-5-7-7-5-0-|

 
 
La 25 - Nadie :: indexed at Ultimate Guitar.
Nadie tabs @ 911Tabs

Quick tip, so you can enjoy Nadie even more:

You might want to transpose the song if it is too high or too low for you to sing. Just click the desired option while playing a song and all the chords will automatically be transponded into a new key.

Show us your talent, perform Nadie!

Here you can post a video or audio performance. Tell me more ...
Where can we find your performance? Tell me more ...
Your comment:
Please, log in to post your performance.