Artists by letter: A B C D E F G H I J K L M N O P Q R S T U V W X Y Z 0-9

 
Paano
Song: Paano (Original Version)
Artist: Kamikazee

Tab to pra sa side ni Jomal (Complete)
Ndi ko sinama ung kay Led kse prang kasama na din jan,
Any question pm n lng, [email protected]



[Intro]

e|----0~~------0~~------0~~--------------------------------------------------|
B|----0~~------0~~------0~~--------------------------------------------------|
G|----4~~------4~~------4~~--------------------------------------------------|
D|----2~~------2~~------2~~---------66-x---66-x---66-x---66-x----------------|
A|----------------------------------44-x---44-x---44-x---66-x----------------|
E|---------------------------------------------------------------------------|

e|---------------------------------------------------------------------------------------------|
B|---------------------------------------------------------------------------------------------|
G|----------------------------------------------6-666666--8-888888--9-999999--11-111111--------|
D|----6-666666----------------------------------x-xxxxxx--x-xxxxxx--x-xxxxxx--x--xxxxxx--------|
A|----4-444444--7-777777--2-222222-222222-------4-444444--6-666666--7-777777--9--999999--------|
E|--------------5-555555--0-000000-000000------------------------------------------------------|

e|---------7-7777---------------------------------------------------------7-7777-----------------------|
B|---5-4-0---------5-4-0-4-5-4-0----5-4-5-0-0000--5-4-0-4-5-4-0-----5-4-0---------5-4-0-4-5-4-0-4~~~---|
G|-----------------------------------------------------------------------------------------------------|
D|-----------------------------------------------------------------------------------------------------|
A|-----------------------------------------------------------------------------------------------------|
E|-----------------------------------------------------------------------------------------------------|


[Verse I] 

(Palm Muted)

e|---------------------------------------------------------------------------|
B|---------------------------------------------------------------------------|
G|---------------------------------------------------------------------------|
D|---------------------------------------------------------------------------|
A|-7-7777777777777---9-999999--11--111111------------------------------------|
E|-5-5555555555555---7-777777---9--999999------------------------------------|


[Riff]

 Palm Muted except dun sa 6h9

e|---------------------------------------------------------------------------|
B|---------------------------------------------------------------------------|
G|---------------------------------------------------------------------------|
D|---------------------------------------------------------------------------|
A|-------777-6h9--66-77-99-111111-999999-7777--6h7p6p0-----------------------|
E|---000---------------------------------------------------------------------|


      May parts na ndi palm muted d2, pakinggan nyo n lng sa kanta
e|---------------------------------------------------------------------------|
B|---------------------------------------------------------------------------|
G|---------------------------------------------------------------------------|
D|---------------------------------------------------------------------------|
A|-7-7777777777777---9-999999--11--11111-------------------------------------|
E|-5-5555555555555---7-777777---9--99999-------------------------------------|


e|-------------------------------555-777-555-4540-----------------------------------------------------------|
B|--999-777-555--999-77-5----999----------------------------------------------------------------------------|
G|----------------------------------------------------------------------------------------------------------|
D|------------------------------------------------------------------------------------------------66-x--66-x|
A|-------------------------------------------------2~~--------------------------------7-6---7-6---44-x--44-x|
E|-------------------------------------------------0~~------12\0----0-5-4--054-----/7------7----------------|


[Chorus]

e|---------------------------------------------------------------------------------------------|
B|---------------------------------------------------------------------------------------------|
G|----------------------------------------------6-666666--8-888888--9-999999--11-111111--------|
D|----6-666666----------------------------------x-xxxxxx--x-xxxxxx--x-xxxxxx--x--xxxxxx--------|
A|----4-444444--7-777777--2-222222-222222-------4-444444--6-666666--7-777777--9--999999--------|
E|--------------5-555555--0-000000-000000------------------------------------------------------|

e|---------7-7777---------------------------------------------------------7-7777-----------------------|
B|---5-4-0---------5-4-0-4-5-4-0----5-4-5-0-0000--5-4-0-4-5-4-0-----5-4-0---------5-4-0-4-5-4-0-4~~~---|
G|-----------------------------------------------------------------------------------------------------|
D|-----------------------------------------------------------------------------------------------------|
A|-----------------------------------------------------------------------------------------------------|
E|-----------------------------------------------------------------------------------------------------|


[Verse II] 

Palm Muted.  
                                                Pakinggang nyo n lng sa kanta
                                                kung pano tyempo d2
e|-----------------------------------------|------------------------------------------|
B|-----------------------------------------|------------------------------------------|
G|-----------------------------------------|------------------------------------------|
D|-----------------------------------------|------------------------------------------|
A|-7-7777777777777---9-999999--11--111111--|----7\\--------9\\-------11\\---11-11-11--|
E|-5-5555555555555---7-777777---9--999999--|----5\\--------7\\--------9\\----9--9--9--|


e|---------------------------------------------------------------------------|
B|---------------------------------------------------------------------------|
G|---------------------------------------------------------------------------|
D|---------------------------------------------------------------------------|
A|-7-7777777777777---9-999999--11--111111------------------------------------|
E|-5-5555555555555---7-777777---9--999999------------------------------------|


e|-------------------------------555-777-555-4540-----------------------------------------------------------|
B|--999-777-555--999-77-5----999----------------------------------------------------------------------------|
G|----------------------------------------------------------------------------------------------------------|
D|------------------------------------------------------------------------------------------------66-x--66-x|
A|-------------------------------------------------2~~--------------------------------7-6---76----44-x--44-x|
E|-------------------------------------------------0~~------12\-----0-5-4--054-----/7------7----------------|


[Chorus]

e|---------------------------------------------------------------------------------------------|
B|---------------------------------------------------------------------------------------------|
G|----------------------------------------------6-666666--8-888888--9-999999--11-111111--------|
D|----6-666666----------------------------------x-xxxxxx--x-xxxxxx--x-xxxxxx--x--xxxxxx--------|
A|----4-444444--7-777777--2-222222-222222-------4-444444--6-666666--7-777777--9--999999--------|
E|--------------5-555555--0-000000-000000------------------------------------------------------|

e|---------7-7777---------------------------------------------------------7-7777-----------------------|
B|---5-4-0---------5-4-0-4-5-4-0----5-4-5-0-0000--5-4-0-4-5-4-0-----5-4-0---------5-4-0-4-5-4-0-4~~~---|
G|-----------------------------------------------------------------------------------------------------|
D|-----------------------------------------------------------------------------------------------------|
A|-----------------------------------------------------------------------------------------------------|
E|-----------------------------------------------------------------------------------------------------|


[Bridge]

e|--0~~-------------|3x e|----------------------------------------------------|
B|--0~~---0~~---0~~-|   B|----------------------------------------------------|
G|--4~~---0~~---0~~-|   G|----------------------------------------------------|
D|--2~~---4~~---6~~-|   D|----------------------------------------------------|
A|--------2~~---4~~-|   A|--7-777777777777-/9-999999-/11-1111111--------------|
E|------------------|   E|--5-555555555555-/7-777777-/-9-999999---------------|


[Solo]

e|---------4--------7--|6x  e|--------4---------7-5-4-5-4--------| e|--------------777--------|4x
B|---0-4-5----0-4-5----|    B|--0-4-5---0-4-5-7-----------7-5-4--| B|--999-777-555-----99-7---|
G|---------------------|    G|-----------------------------------| G|-------------------------|
D|---------------------|    D|-----------------------------------| D|-------------------------|
A|---------------------|    A|-----------------------------------| A|-------------------------|
E|---------------------|    E|-----------------------------------| E|-------------------------|

e|---------xxxx--------|
B|---------xxxx--------|   
G|---------xxxx--------|
D|---6666--xxxx--------|  
A|---4444--xxxx--------|
E|---------xxxx--------|


[Chorus]

e|---------------------------------------------------------------------------------------------|
B|---------------------------------------------------------------------------------------------|
G|----------------------------------------------6-666666--8-888888--9-999999--11-111111--------|
D|----6-666666----------------------------------x-xxxxxx--x-xxxxxx--x-xxxxxx--x--xxxxxx--------|
A|----4-444444--7-777777--2-222222-222222-------4-444444--6-666666--7-777777--9--999999--------|
E|--------------5-555555--0-000000-000000------------------------------------------------------|

e|---------7-7777---------------------------------------------------------7-7777-----------------------|
B|---5-4-0---------5-4-0-4-5-4-0----5-4-5-0-0000--5-4-0-4-5-4-0-----5-4-0---------5-4-0-4-5-4-0-4~~~---|
G|-----------------------------------------------------------------------------------------------------|
D|-----------------------------------------------------------------------------------------------------|
A|-----------------------------------------------------------------------------------------------------|
E|-----------------------------------------------------------------------------------------------------|


[Outro]

e|--------------------------|
B|--------------------------|   
G|--------------------------|
D|---6~---8~---9-11---------|  
A|---4~---6~---7--9--7~-----|
E|-------------------5~-----|
                                                                                           Mejo tricky sa
                                                                                            part na to
e|---------4--------7--|6x e|------------7-5-4-5-4--------| e|--------------777-------|2x e|---------------|3x
B|---0-4-5----0-4-5----|   B|----0-4-5-7-----------7-5-4--| B|--999-777-555-----99-7--|   B|--9999999------|
G|---------------------|   G|-----------------------------| G|------------------------|   G|---------------|
D|---------------------|   D|-----------------------------| D|------------------------|   D|---------------|
A|---------------------|   A|-----------------------------| A|------------------------|   A|---------------|
E|---------------------|   E|-----------------------------| E|------------------------|   E|---------------|

e|---------------------------------------------------------------------------------|
B|---------------------------------------------------------------------------------|   
G|-------------------------------------------------------66----66----66----66------|
D|---66-xx-66-xx-66-xx-66-xx-66-xx-66-xx-66-xx-66-xx-----xx----xx----xx----xx------|  
A|---44-xx-44-xx-44-xx-44-xx-44-xx-44-xx-44-xx-44-xx-----44----44----44----44------|
E|---------------------------------------------------------------------------------|



************************************

| x   Dead note
| h   Hammer-on
| p   Pull-off 
| /   Slide up
| \   Slide down
| ~   Vibrato

************************************

 
 
Kamikazee - Paano :: indexed at Ultimate Guitar.
Paano tabs @ 911Tabs

About the artist behind Paano:

Kamikazee is a rock band from the Philippines composed of Jay Contreras (Lead Vocalist), Jomal Linao (Guitars/Back-up Vocals), Led Zeppelin Tuyay (Guitars), Jason "Puto" Astete (Bass Guitar) and Allan "Bords" Burdeos (drums).

Indexed at Wikipedia.

Show us your talent, perform Paano!

Here you can post a video or audio performance. Tell me more ...
Where can we find your performance? Tell me more ...
Your comment:
Please, log in to post your performance.