Artists by letter: A B C D E F G H I J K L M N O P Q R S T U V W X Y Z 0-9

 
Martyr Nyebera Tower Sessions
-------------------------------------------------------------------------------
            MARTYR NYEBERA(Tower Sessions Version) - Kamikazee
-------------------------------------------------------------------------------

Mga tol. Kinuha ko lang sa Tower Sessions. Medyo iba ng konti ang adlib kumpara sa sa mismong original
nito pero try nyo din :)

Tabbed by:ryrioskeshinn
E-mail:[email protected]

Tuning:Standard

************************************
| /   slide up
| \   slide down
| h   hammer-on
| ~   let it ring
| x   dead string/mute
| .   palm mute
************************************


INTRO part 1

Both Guitar 1 and 2
e|-----xxx-----xxx----------------|
B|-----xxx-----xxx----------------|
G|-----xxx-7-6-xxx-667766776677-9-| do it 2x
D|-7-2-xxx-7-6-xxx----------------|
A|-7-2-xxx-5-4-xxx-445544554455-7-|
E|-5-0-xxx-----xxx----------------|


INTRO part 2

Guitar 1
e|-------------------------|
B|-------------------------|
G|-------------77777-99999-| do it 2x
D|-77777777777-77777-99999-| 
A|-77777777777-55555-77777-|
E|-55555555555-------------|

Guitar 2
e|---------------------------------------------------|
B|---------------------------------------------------|
G|-6-----9--7--6-----9--7--6-7-6-7-------------------|
D|----7-----------7----------------7--9--11--9--7--9-|
A|---------------------------------------------------|
E|---------------------------------------------------|

e|----------------------------------------------------|
B|----------------------------------------------------|
G|-6-----9--7--6-----9--7--6-7-6-7--------------------|
D|----7-----------7----------------7--9--11--9--------|
A|----------------------------------------------------|
E|---------------------------------------------*slide-|

VERSE 1


Both Guitar 1 and 2
e|-------------------------------------------------------------------|
B|-------------------------------------------------------------------|
G|------------------7-777777-9-9999999--------------7--777777-99-9-9-|
D|-7--7777777777777-7-777777-9-9999999-7--777777777-7--777777-99-9-9-|
A|-7--7777777777777-5-555555-7-7777777-7--777777777-5--555555-77-7-7-|
E|-5--5555555555555--------------------5--555555555------------------|
      .............   ......   .......    .........    ......


e|-------------------------------------------------|
B|-------------------------------------------------|
G|-------------77777-99999-------------77777-99999-|
D|-77777777777-77777-99999-77777777777-77777-99999-|
A|-77777777777-55555-77777-77777777777-55555-77777-|
E|-55555555555-------------55555555555-------------|


PRE-CHORUS

Both Guitar 1 and 2
e|--------------------------|
B|------------------------P-|
G|-------------7-777777-7-A-|
D|-44444-22222-7-777777-7-U-|
A|-44444-22222-5-555555-5-S-|
E|-22222-00000------------E-|
                 ......

CHORUS

Guitar 1
e|---------------------------------------------------------------|
B|---------------------------------------------------------------|
G|-------9999999-66666-7777777-------9999999-66666---------------|
D|-77777-9999999-66666-7777777-77777-9999999-66666---------------|
A|-77777-7777777-44444-5555555-77777-7777777-44444-5-4-5-4-5-4-5-|
E|-55555-----------------------55555-----------------------------|

e|-----------------------------------------------------|
B|---------------------------------------------------P-|
G|-------9999999-66666-7777777-------9999999-66666-7-A-|
D|-77777-9999999-66666-7777777-77777-9999999-66666-7-U-|
A|-77777-7777777-44444-5555555-77777-7777777-44444-5-S-|
E|-55555-----------------------55555-----------------E-|


Guitar 2
e|---------------------------------------------------------------|
B|---------------------------------------------------------------|
G|-------9999999-66666-7777777-------9999999-66666-7\6/7\6/7\6/7-|
D|-77777-9999999-66666-7777777-77777-9999999-66666---------------|
A|-77777-7777777-44444-5555555-77777-7777777-44444-5\4/5\4/5\4/5-|
E|-55555-----------------------55555-----------------------------|


e|-----------------------------------------------------|
B|---------------------------------------------------P-|
G|-------9999999-66666-7777777-------9999999-66666-7-A-|
D|-77777-9999999-66666-7777777-77777-9999999-66666-7-U-|
A|-77777-7777777-44444-5555555-77777-7777777-44444-5-S-|
E|-55555-----------------------55555-----------------E-|



INTERLUDE


Both Guitar 1 and 2
e|-----xxx-----xxx----------------|
B|-----xxx-----xxx----------------|
G|-----xxx-7-6-xxx-667766776677-9-|
D|-7-2-xxx-7-6-xxx----------------|
A|-7-2-xxx-5-4-xxx-445544554455-7-|
E|-5-0-xxx-----xxx----------------|

e|-----xxx-----xxx--------------------|
B|-----xxx-----xxx--------------------|
G|-----xxx-7-6-xxx-66776677-----------|
D|-7-2-xxx-7-6-xxx--------------------|
A|-7-2-xxx-5-4-xxx-44554455-----------|
E|-5-0-xxx-----xxx---------*pickslide-|



VERSE 2


Guitar 1
e|-------------------------------------------------------------------|
B|-------------------------------------------------------------------|
G|------------------7-777777-9-9999999--------------7--777777-99-9-9-|
D|-7--7777777777777-7-777777-9-9999999-7--777777777-7--777777-99-9-9-|
A|-7--7777777777777-5-555555-7-7777777-7--777777777-5--555555-77-7-7-|
E|-5--5555555555555--------------------5--555555555------------------|
      .............   ......   .......    .........    ......


e|-------------------------------------------------|
B|-------------------------------------------------|
G|-------------77777-99999-------------77777-99999-|
D|-77777777777-77777-99999-77777777777-77777-99999-|
A|-77777777777-55555-77777-77777777777-55555-77777-|
E|-55555555555-------------55555555555-------------|

Guitar 2

e|---------------------------------------------------------|
B|---------------------------------------------------------|
G|-9--7--6h7----9--7--6h7----9--7--9\11--9--14--14--13--14-|
D|-----------7------------7--------------------------------|
A|---------------------------------------------------------|
E|---------------------------------------------------------|

e|----------------------------------------------|
B|----------------------------------------------|
G|-9--7--6h7----9--7--6h7----9--7--6h7---99-9-9-|
D|-----------7------------7------------7-99-9-9-|
A|---------------------------------------77-7-7-|
E|----------------------------------------------|

e|--------------------------------------------------------------------|
B|--------------------------------------------------------------------|
G|-14-14-14-14-14-14-14-14-14-13-13-13-13-13-13-13-13-11-11-11-11-9-9-| do this 2x
D|--------------------------------------------------------------------| 
A|-12-12-12-12-12-12-12-12-12-11-11-11-11-11-11-11-11-9--9--9--9--7-7-|
E|--------------------------------------------------------------------|


PRE-CHORUS

Both Guitar 1 and 2
e|--------------------------|
B|------------------------P-|
G|-------------7-777777-7-A-|
D|-44444-22222-7-777777-7-U-|
A|-44444-22222-5-555555-5-S-|
E|-22222-00000------------E-|
                 ......

CHORUS

Guitar 1
e|---------------------------------------------------------------|
B|---------------------------------------------------------------|
G|-------9999999-66666-7777777-------9999999-66666---------------|
D|-77777-9999999-66666-7777777-77777-9999999-66666---------------|
A|-77777-7777777-44444-5555555-77777-7777777-44444-5-4-5-4-5-4-5-|
E|-55555-----------------------55555-----------------------------|

e|-----------------------------------------------------|
B|---------------------------------------------------P-|
G|-------9999999-66666-7777777-------9999999-66666-7-A-|
D|-77777-9999999-66666-7777777-77777-9999999-66666-7-U-|
A|-77777-7777777-44444-5555555-77777-7777777-44444-5-S-|
E|-55555-----------------------55555-----------------E-|


Guitar 2
e|---------------------------------------------------------------|
B|---------------------------------------------------------------|
G|-------9999999-66666-7777777-------9999999-66666-7\6/7\6/7\6/7-|
D|-77777-9999999-66666-7777777-77777-9999999-66666---------------|
A|-77777-7777777-44444-5555555-77777-7777777-44444-5\4/5\4/5\4/5-|
E|-55555-----------------------55555-----------------------------|


e|-----------------------------------------------------|
B|---------------------------------------------------P-|
G|-------9999999-66666-7777777-------9999999-66666-7-A-|
D|-77777-9999999-66666-7777777-77777-9999999-66666-7-U-|
A|-77777-7777777-44444-5555555-77777-7777777-44444-5-S-|
E|-55555-----------------------55555-----------------E-|



ADLIB part 1


Guitar 1
e|------------------------------------------------------------------|
B|------------------------------------------------------------------|
G|------------------------------------------------------------------|
D|-7-7-7-7-6-6-6-6----------7-7-6-6-----7-7-6-6-----7-7-6-6---------|
A|------------------7-7-7-7---------7-7---------7-7---------7-7-7-7-|
E|------------------------------------------------------------------|

e|--------------------------------------------------------|
B|--------------------------------------------------------|
G|--------------------------------------------------------|
D|-7-7-7-7-6-6-6-6---------7-7-6-6-----7-7-6-6----7x7x7x7-|
A|-----------------7-7-7-7---------7-7---------77-7x7x7x7-|
E|------------------------------------------------5x5x5x5-|

e|-----------------------------------------|
B|-----------------------------------------|
G|-----------------------------------------| do this 2x
D|-7-7-7-7-9-9-9-9-11-11-11-11-14-14-14-14-|
A|-----------------------------------------|
E|-----------------------------------------|

e|------------------------------------------------------------------|
B|------------------------------------------------------------------|
G|------------------------------------------------------------------|
D|-7-7-7-7-6-6-6-6----------7-7-6-6-----7-7-6-6-----7-7-6-6---------|
A|------------------7-7-7-7---------7-7---------7-7---------7-7-7-7-|
E|------------------------------------------------------------------|

e|-----------------------|                          
B|-----------------------|
G|-------777777777777777-| 
D|-4~-2~-777777777777777-|
A|-4~-2~-555555555555555-|
E|-2~-0~-----------------|
 
e|-----------------|
B|-----------------|
G|--------7--6-----| 
D|-4~-2~--7--6--7~-|
A|-4~-2~--5--4--7~-|
E|-2~-0~--------5~-|


Guitar 2
e|---------------------------------------------------------------------------|
B|-10-10-10-10-9-9-9-9---------10-10-9-9-----10-10-9-9-----10-10-9-9---------|
G|---------------------9-9-9-9-----------9-9-----------9-9-----------9-9-9-9-|
D|---------------------------------------------------------------------------|
A|---------------------------------------------------------------------------|
E|---------------------------------------------------------------------------|

e|------------------------------------------------------------------|
B|-10-10-10-10-9-9-9-9---------10-10-9-9-----10-10-9-9-----99x9x9x9-|
G|---------------------9-9-9-9-----------9-9-----------9-9-99x9x9x9-|
D|------------------------------------------------------------------|
A|------------------------------------------------------------------|
E|------------------------------------------------------------------|

e|----------------------------------------------|
B|-10-10-10-12-12-12-10-10-10-9-9-9-10-10-12-12-|
G|----------------------------------------------|
D|----------------------------------------------|
A|----------------------------------------------|
E|----------------------------------------------|

e|--------------------------------------------|
B|-10-10-10-9-9-9-10-10-10-12-12-12-10-10-9-9-|
G|--------------------------------------------| do this 2x
D|--------------------------------------------|
A|--------------------------------------------|
E|--------------------------------------------|

e|------------------------------|
B|-10-10-10-9-9-9-10------------|
G|------------------------------|
D|------------------------------|
A|------------------------------|
E|-------------------*pickslide-|

e|-------------------------------------------------------------------------------------|
B|-9h10-10-10-10-10-10-10-10-9-9-9-10-10-10-10-10-14-14-14-12-12-12-10-10-10-9-9-9-9-9-|
G|-------------------------------------------------------------------------------------|
D|-------------------------------------------------------------------------------------|
A|-------------------------------------------------------------------------------------|
E|-------------------------------------------------------------------------------------|

e|-----------------------------------------|
B|-9h10--9--10--12-12-10-10-9-9-10--9--10~-|
G|-----------------------------------------|
D|-----------------------------------------|
A|-----------------------------------------|
E|-----------------------------------------|



ADLIB part 2


Guitar 1(cleans)
e|-------------------------------------|
B|-------------------------------------|
G|-22222222----------66666666-77777777-| do this 4x
D|-22222222-22222222-66666666-77777777-|
A|-00000000-22222222-44444444-55555555-|
E|----------00000000-------------------|


(palit sa distortion)
e|-------------------------------------------------------------------|
B|-------------------------------------------------------------------|
G|------------------9999999999999999-66666666666666-7777777777777777-|
D|-7--7777777777777-9999999999999999-66666666666666-7777777777777777-|
A|-7--7777777777777-7777777777777777-44444444444444-5555555555555555-|
E|-5--5555555555555--------------------------------------------------|
      ............. ................ .............. 


Guitar 2{clean} 
(enters the second round)
e|-----------------------------------|
B|-----------------------------------|
G|-9----7----6--7--7/9-7--6--7--7/9~-|
D|-----------------------------------|
A|-----------------------------------|
E|-----------------------------------|

(palit sa distortion)
e|-------------------------|
B|-10--9--10--10/12--10--9-|
G|-------------------------| do it 2x then
D|-------------------------|
A|-------------------------|
E|-------------------------|

e|-----------------------------|
B|-10--9--10--10/12--10--9--5~-|
G|-----------------------------| 
D|-----------------------------|
A|-----------------------------|
E|-----------------------------|


yang parenthesis ay kung ilang beses iplapluck
e|---------------------------------------------------------|
B|-10x(8x)-9x(8x)-10x(4x)-12x(4x)-10x(3x)-10-9-10-10-10-10-|
G|---------------------------------------------------------|
D|---------------------------------------------------------|
A|---------------------------------------------------------|
E|---------------------------------------------------------|

e|-----------------------------------------|
B|-10-10-10-9-9-9-10-10-10-12-12-10-10-9-9-|
G|-----------------------------------------| do this 2x then
D|-----------------------------------------|
A|-----------------------------------------|
E|-----------------------------------------|

e|-----------------------------------------------------------------------------------------|
B|-10-10-10-9-9-9-10-10-10-12-12-10-10-9-9-10-10-10-10-10-10-10-10-10-10-10-10-10-10-10-10-|
G|-----------------------------------------------------------------------------------------|
D|-----------------------------------------------------------------------------------------|
A|-----------------------------------------------------------------------------------------|
E|-----------------------------------------------------------------------------------------|



ADLIB part 3


Both Guitar 1 and 2
e|---------------------------------------|
B|---------------------------------------|
G|-666-444-------------------------------|
D|-666-444-666-777-66-77-666-777-99--2-2-|
A|-444-222-666-777-66-77-666-777-99--2-2-|
E|---------444-555-44-55-444-555-77--0-0-|

e|----------------------------------|
B|----------------------------------|
G|-666-444--------------------------|
D|-666-444-666-777-66-77-666-777-99-|
A|-444-222-666-777-66-77-666-777-99-|
E|---------444-555-44-55-444-555-77-|


FINAL CHORUS


Guitar 1
e|---------------------------------------------------------------|
B|---------------------------------------------------------------|
G|-------9999999-66666-7777777-------9999999-66666---------------|
D|-77777-9999999-66666-7777777-77777-9999999-66666---------------|
A|-77777-7777777-44444-5555555-77777-7777777-44444-5-4-5-4-5-4-5-|
E|-55555-----------------------55555-----------------------------|

e|----------------------------------------------------------|
B|----------------------------------------------------------|
G|-------9999999-66666-7777777-------9999999-66666-77777777-|
D|-77777-9999999-66666-7777777-77777-9999999-66666-77777777-|
A|-77777-7777777-44444-5555555-77777-7777777-44444-55555555-|
E|-55555-----------------------55555------------------------|


Guitar 2
e|---------------------------------------------------------------|
B|---------------------------------------------------------------|
G|-------9999999-66666-7777777-------9999999-66666-7\6/7\6/7\6/7-|
D|-77777-9999999-66666-7777777-77777-9999999-66666---------------|
A|-77777-7777777-44444-5555555-77777-7777777-44444-5\4/5\4/5\4/5-|
E|-55555-----------------------55555-----------------------------|

e|----------------------------------------------------------|
B|----------------------------------------------------------|
G|-------9999999-66666-7777777-------9999999-66666-77777777-|
D|-77777-9999999-66666-7777777-77777-9999999-66666-77777777-|
A|-77777-7777777-44444-5555555-77777-7777777-44444-55555555-|
E|-55555-----------------------55555------------------------|



OUTRO


Guitar 1
e|------------------------------------------------------------------|
B|------------------------------------------------------------------|
G|------------------------------------------------------------------|
D|-7-7-7-7-6-6-6-6----------7-7-6-6-----7-7-6-6-----7-7-6-6---------|
A|------------------7-7-7-7---------7-7---------7-7---------7-7-7-7-|
E|------------------------------------------------------------------|


e|-----------------------------------------------------------------------|
B|-----------------------------------------------------------------B-----|
G|-----------------------------------------------------------------R-----|
D|-7-7-7-7-6-6-6-6---------7-7-6-6-----7-7-6-6-------------------7-E--7~-|
A|-----------------7-7-7-7---------7-7---------7-7-5-4-5-4-5-4-5-7-A--7~-|
E|---------------------------------------------------------------5-K--5~-|

Guitar 2
e|-----------------------------------|
B|-----------------------------------|
G|-------9999999-66666-7\6/7\6/7\6/7-|
D|-77777-9999999-66666---------------|
A|-77777-7777777-44444-5\4/5\4/5\4/5-|
E|-55555----------------------------|

e|-------------------------------------------|
B|-------------------------------------B-----|
G|-------9999999-66666-7\6/7\6/7\6/7---R-----|
D|-77777-9999999-66666---------------7-E--7~-|
A|-77777-7777777-44444-5\4/5\4/5\4/5-7-A--7~-|
E|-55555-----------------------------5-K--5~-|


Rate nyo mga tol. Check nyo ang adlib :D.Dedicated to Bulateworms ! Miss ko kayo Aljun,Roy,Renz,
Kenneth H. at Kenneth L, at kay Angelica Faye. Lalo na sa dati kong inspirasyon na beauty queen :DD
 
 
Kamikazee - Martyr Nyebera Tower Sessions :: indexed at Ultimate Guitar.
Martyr Nyebera Tower Sessions tabs @ 911Tabs

About the artist behind Martyr Nyebera Tower Sessions:

Kamikazee is a rock band from the Philippines composed of Jay Contreras (Lead Vocalist), Jomal Linao (Guitars/Back-up Vocals), Led Zeppelin Tuyay (Guitars), Jason "Puto" Astete (Bass Guitar) and Allan "Bords" Burdeos (drums).

Indexed at Wikipedia.

Show us your talent, perform Martyr Nyebera Tower Sessions!

Here you can post a video or audio performance. Tell me more ...
Where can we find your performance? Tell me more ...
Your comment:
Please, log in to post your performance.