Artists by letter: A B C D E F G H I J K L M N O P Q R S T U V W X Y Z 0-9

 
Halik
Halik


Suportahan natin ang kamikazee. Ang galing ng banda nila. Walang kantang pangit. Kaya
gitarahin natin sila.

Yung mga may problema sa tab, kayo na bahalang magdagdag. Gawa kayo ng tab para maitama
ang mga mali.

Paki rate kung maganda yung tab, Pleaseee. Wala pang nagrarate ng mga tab ko. Maawa kayo.

[Intro] (Rhythm)

e----------------------------------------------------------------|
B----------------------------------------------------------------|
G--4-4-4-4-4-4-4-4-4-4-4-4-4-4-4-4-4-4-4-4-4-4-4-4~--6\8--6\4----|
D----------------------------------------------------------------|
A--2-2-2-2-2-2-2-2-2-2-2-2-2-2-2-2-2-2-2-2-2-2-2-2~--4\6--4\2----|
E----------------------------------------------------------------|

e------------------------------------------------|
B------------------------------------------------|
G------------------------------------------------| (Listen to the rhythm
D--2--4-4--------------2--4-4--------------------| pattern. Figure it out.)
A--2--2-2--4-4--6-6----2--2-2--4-4-4-4-----------|
E--0-------2-2--4-4----0-------2-2-2-2-----------|


[Intro] (Solo)

e--------------------------------------------------------------------|
B---77b-5424--77-77-7\9-7-542------77b-542-42--7\9-7-545-4h5------7~-|
G--4---------4--4-----------------4----------4--------------46----4~-|
D--------------------------------------------------------------------|
A--------------------------------------------------------------------|
E--------------------------------------------------------------------|
Listen to the sound. You’ll figure it out. :) There’s a slide sound before the last
notes(the 7th fret of B string & 4th fret of G String). I can’t do it. Suko ako. Kayo kumapa.


[Verse]

e------------------------------------------------------------------------|
B------------------------------------------------------------------------|
G------------------------------------------------------------------------|
D--2-2-2-2-2-2-2-2-2-2-2-2-2-2-2-2---------------------------------------| 4x
A--2-2-2-2-2-2-2-2-2-2-2-2-2-2-2-2---4-4-4-4-4-4-4-4--6-6-6-6-6-6-6-6----|
E--0-0-0-0-0-0-0-0-0-0-0-0-0-0-0-0---2-2-2-2-2-2-2-2--4-4-4-4-4-4-4-4----|


This part starts from the line, ‘May mali ba akong nagawa?’
e----------------------------------------------------------------------------|
B----------------------------------------------------------------------------|
G-11-11-11-11-11-11-11-11-11-11-11-11-11-11-11-11-99999999-8-8-8-8-6-6-6-6---|
D----------------------------------------------------------------------------| 2x
A----------------------------------------------------------------------------|
E----------------------------------------------------------------------------|
Last note is 11th fret of G Sting.


[Chorus]

e-----------|
B-----------|
G--6\8-6\4--|
D-----------|
A--4\6-4\2--|
E-----------|

e---------------------------------------|
B---------------------------------------|
G---------------------------------------| (Listen to the rhythm
D--2--44------------2--44---------------| pattern. Figure it out.):)
A--2--22--44--66----2--22--4444---------| 2x
E--0------22--44----0------2222---------|

Before Verse 2

e---------|
B---------|
G---------|
D--2~-----|
A--2~-----|
E--0~-----|


[Verse 2]

e-----------------------------------|
B-----------------------------------|
G-----------------------------------|
D----4--4~---4--4~---4--4~---4--4~--|4x
A-----------------------------------|
E--00-00---00-00---22-22---44-44----|

This part starts from the line, ‘Sayang lang ang iyong pagtitiyaga.’
e----------------------------------------------------------------------------|
B----------------------------------------------------------------------------|
G-11-11-11-11-11-11-11-11-11-11-11-11-11-11-11-11-99999999-8-8-8-8-6-6-6-6---|
D----------------------------------------------------------------------------|2x
A----------------------------------------------------------------------------|
E----------------------------------------------------------------------------|
Last note is 11th fret of G Sting.


[Chorus]

e-----------|
B-----------|
G--6\8-6\4--|
D-----------|
A--4\6-4\2--|
E-----------|

e---------------------------------------|
B---------------------------------------|
G---------------------------------------| (Listen to the rhythm
D--2--44------------2--44---------------| pattern. Figure it out.):)
A--2--22--44--66----2--22--4444---------| 2x
E--0------22--44----0------2222---------|


[The Bridge]

Lead
e--------------------------------------------|
B--------------------------------------------|
G--11---------9----------13-----11--989-864--|(Yan ang tab, Figure out
D--------------------------------------------| the rhythm pattern) :)
A--9----------7----------11-----9---767-642--|
E--------------------------------------------|

Rhythm

e--------------------------------------|
B--------------------------------------|
G--------------------------------------|
D-------------------2222222222222222---| 2x
A--666666669999999992222222222222222---|
E--444444447777777770000000000000000---|

Repeat Chorus
Last part of the chorus has the same chords but with the solo from intro.


[Outro]

e------------|
B------------|
G------------|
D--2--44-----|
A--2--22-44~-| (2x)
E--0-----22~-|



************************************

| h  Hammer-on
| b  Bend
| \  Slide down
| ~  Vibrato

************************************
 
 
Kamikazee - Halik :: indexed at Ultimate Guitar.
Halik tabs @ 911Tabs

About the artist behind Halik:

Kamikazee is a rock band from the Philippines composed of Jay Contreras (Lead Vocalist), Jomal Linao (Guitars/Back-up Vocals), Led Zeppelin Tuyay (Guitars), Jason "Puto" Astete (Bass Guitar) and Allan "Bords" Burdeos (drums).

Indexed at Wikipedia.

Show us your talent, perform Halik!

Here you can post a video or audio performance. Tell me more ...
Where can we find your performance? Tell me more ...
Your comment:
Please, log in to post your performance.