Artists by letter: A B C D E F G H I J K L M N O P Q R S T U V W X Y Z 0-9

 
Girlfriend
tabbed by: ulo ([email protected])

song:  girlfriend
band:  kamikazee
album: kamikazee
tuning: EADBGe (standard)

guitars 1 & 2:

|------------|
 |------------|
 |------------|
 |------------|
 |-7-7---7-7--|
 |-5-5---5-5--|

Intro:

guitar 1
||-----------------------------------------------------------------||   
||-----------------------------------------------------------------||   
||-----------------------------------------------------------------||(2x)  
||-7-7-7-7-7-7-7-7-7-7-7-7-7-7-7-7-4-4-4-4-4-4-4-4-----------------||   
||-5-5-5-5-5-5-5-5-4-4-4-4-4-4-4-4-2-2-2-2-2-2-2-2-7-7-7-7-7-7-7-7-||  
||-------------------------------------------------5-5-5-5-5-5-5-5-|| 
||                                                                 ||
||guitar 2                                                         ||
||-----------------------------------------------------------------||
||-----------------------------------------------------------------||
||---------7-7-----------------------------7-7---------------------||(2x)
||-----7-7-----7-7-5-5-4-4-5-5-7-7-----7-7-----7-7-5-5-4-4-5-5-7-7-||
||-5-5-----------------------------5-5-----------------------------||
||-----------------------------------------------------------------||

guitars 1 & 2:

|-------|
  |-------|
  |-------| end of intro!!!
  |--7-7--|
  |--5-5--|
  |-------|

Verse:

guitar 1
    pm................................................
|--------------------------------------------------------------
|--------------------------------------------------------------
|--------------------------------------------------------------
|-7--7-7-7-7-7-7-7-7-7-7-7-7-7-4-4-4-4-4-4-4-4-----------------
|-5--5-5-5-5-5-4-4-4-4-4-4-4-4-2-2-2-2-2-2-2-2-7-7-7-7-7-7-7-7-
|----------------------------------------------5-5-5-5-5-5-5-5-
|
|
|guitar 2
|   pm................................................
|--------------------------------------------------------------
|--------------------------------------------------------------
|--------------------------------------------------------------
|-7--7-7-7-7-7-7-7-7-7-7-7-7-7-4-4-4-4-4-4-4-4-----------------
|-5--5-5-5-5-5-4-4-4-4-4-4-4-4-2-2-2-2-2-2-2-2-7-7-7-7-7-7-7-7-
|----------------------------------------------5-5-5-5-5-5-5-5-

guitar 1
|-----------------------------------------------------------------
|-----------------------------------------------------------------
|-----------------------------------------------------------------
|-7-7-7-7-7-7-7-7-7-7-7-7-7-7-7-7-4-4-4-4-4-4-4-4-----------------
|-5-5-5-5-5-5-5-5-4-4-4-4-4-4-4-4-2-2-2-2-2-2-2-2-7-7-7-7-7-7-7-7-
|-------------------------------------------------5-5-5-5-5-5-5-5-
|
|
|guitar 2
|-----------------------------------------------------------------
|-----------------------------------------------------------------
|-----------------------------------------------------------------
|-7-7-7-7-7-7-7-7-7-7-7-7-7-7-7-7-4-4-4-4-4-4-4-4-----------------
|-5-5-5-5-5-5-5-5-4-4-4-4-4-4-4-4-2-2-2-2-2-2-2-2-7-7-7-7-7-7-7-7-
|-------------------------------------------------5-5-5-5-5-5-5-5-

guitar 1
    pm................................................
|--------------------------------------------------------------
|--------------------------------------------------------------
|--------------------------------------------------------------
|-7--7-7-7-7-7-7-7-7-7-7-7-7-7-4-4-4-4-4-4-4-4-----------------
|-5--5-5-5-5-5-4-4-4-4-4-4-4-4-2-2-2-2-2-2-2-2-7-7-7-7-7-7-7-7-
|----------------------------------------------5-5-5-5-5-5-5-5-
|
|
|guitar 2
|pm..   ...   .   ...   ...   .   ...   ...   .   ...   ...   .   
|-----------------------------------------------------------------
|-----------------------------------------------------------------
|-----------------------------------------------------------------
|-----7-----7---7-----7-----7---7-----7-----7---7-----7-----7---7-
|-5-5---5-5---5---4-4---4-4---4-----------------------------------
|---------------------------------7-7---7-7---7---5-5---5-5---5---

guitar 1
|-------------------------------------------------
|-------------------------------------------------
|-------------------------------------------------
|-7-7-7-7-7-7-7-7-7-7-7-7-7-7-7-7-4-4-4-4-4-4-4-4-
|-5-5-5-5-5-5-5-5-4-4-4-4-4-4-4-4-2-2-2-2-2-2-2-2-
|-------------------------------------------------
| 
| 
|guitar 2
|---------------------------------------------------------
|---------------------------------------------------------
|-7-7-7-7-7-7-7-7/9-9-9-9-9-9-9-9/12-12-12-12-12-12-12-12-
|---------------------------------------------------------
|-5-5-5-5-5-5-5-5/7-7-7-7-7-7-7-7/10-10-10-10-10-10-10-10-
|---------------------------------------------------------

guitars 1 & 2:

|------------|
  |------------|
  |------------| end of verse!!
  |------------|
  |-7-7---7-7--|
  |-5-5---5-5--|

Repeat Intro

Repeat Verse

Chorus 1: (repeat intro)

Bridge:

guitar 1
|---------------------------------------------------|
|---------------------------------------------------|
|---------------------------------------------------|
|-7----------7-4----------4-------------------------|
|-5----------5-2----------2-5----------5-7----------|
|---------------------------3----------3-5----------|
|                                                   |
|guitar 2                                           |
|---------------------------------------------------|
|---------------------------------------------------|
|---------------------------------------------------|
|-7----------7-4----------4-------------------------|
|-5----------5-2----------2-5----------5-7----------|
|---------------------------3----------3-5----------|

guitar 1
||-----------------------------------------------------------------
||-----------------------------------------------------------------
||-----------------------------------------------------------------
||-----7-----7---7-----7-----7---7-----7-----7---7-----7-----7---7-
||-5-5---5-5---5---5-5---5-5---5---5-5---5-5---5---5-5---5-5---5---
||-----------------------------------------------------------------
||
||guitar 2
||-----------------------------------------------------------------
||-----------------------------------------------------------------
||-----------------------------------------------------------------
||-----------------------------------------------------------------
||-----------------------------------------------------------------
||-----------------------------------------------------------------

guitar 1
-----------------------------------------------------------------||
-----------------------------------------------------------------||
-----------------------------------------------------------------||(2x)
-----7-----7---7-----7-----7---7-----7-----7---7-----7-----7---7-||
-----------------------------------------------------------------||
-7-7---7-7---7---7-7---7-7---7---5-5---5-5---5---5-5---5-5---5---||
                                                                 ||
 guitar 2                                                        ||
-----------------------------------------------------------------||
-----------------------------------------------------------------||
-----------------------------------------------------------------||
-----------------------------------------------------------------||
-----------------------------------------------------------------||
-----------------------------------------------------------------||

guitar 1
|-----------------------------------------------------------------
|-----------------------------------------------------------------
|-----7-----7---7-----7-----7---7-----7-----7---7-----7-----7---7-
|-----------------------------------------------------------------
|-5-5---5-5---5---5-5---5-5---5-----------------------------------
|---------------------------------3-3---3-3---3---3-3---3-3---3---
|
|guitar 2
|-----------------------------------------------------------------
|-----------------------------------------------------------------
|-----------------------------------------------------------------
|-----------------------------------------------------------------
|-----------------------------------------------------------------
|-----------------------------------------------------------------

guitar 1
-----------------------------------------------------------------|
-----------------------------------------------------------------|
-----7-----7---7-----7-----7---7-----7-----7---7-----7-----7---7-|
-----------------------------------------------------------------|
-----------------------------------------------------------------|
-7-7---7-7---7---7-7---7-7---7---5-5---5-5---5---5-5---5-5---5---|
                                                                 |
 guitar 2                                                        |
-----------------------------------------------------------------|
-----------------------------------------------------------------|
-----------------------------------------------------------------|
-----------------------------------------------------------------|
-----------------------------------------------------------------|
-----------------------------------------------------------------|

guitar 1
|-----------------------------------------------------------------
|-----------------------------------------------------------------
|-----7-----7---7-----7-----7---7-----7-----7---7-----7-----7---7-
|-----------------------------------------------------------------
|-5-5---5-5---5---5-5---5-5---5-----------------------------------
|---------------------------------3-3---3-3---3---3-3---3-3---3---
|
|guitar 2
|pm..............................................................
|-----------------------------------------------------------------
|-----------------------------------------------------------------
|-7-7-7-7-7-7-7-7-6-6-6-6-9-9-9-9-7-7-7-7-7-7-7-7-6-6-6-6-9-9-9-9-
|-----------------------------------------------------------------
|-5-5-5-5-5-5-5-5-4-4-4-4-7-7-7-7-5-5-5-5-5-5-5-5-4-4-4-4-7-7-7-7-
|-----------------------------------------------------------------

guitar 1
-----------------------------------------------------------------|
-----------------------------------------------------------------|
-----7-----7---7-----7-----7---7-----7-----7---7-----7-----7---7-|
-----------------------------------------------------------------|
-----------------------------------------------------------------|
-7-7---7-7---7---7-7---7-7---7---5-5---5-5---5---5-5---5-5---5---|
                                                                 |
 guitar 2                                                        |
pm.............................................................. |
-----------------------------------------------------------------|
-----------------------------------------------------------------|
-7-7-7-7-7-7-7-7-6-6-6-6-9-9-9-9-7-7-7-7-7-7-7-7-6-6-6-6-9-9-9-9-|
-----------------------------------------------------------------|
-5-5-5-5-5-5-5-5-4-4-4-4-7-7-7-7-5-5-5-5-5-5-5-5-4-4-4-4-7-7-7-7-|
-----------------------------------------------------------------|

guitar 1
|-----------------------------------------------------------------
|-----------------------------------------------------------------
|-----7-----7---7-----7-----7---7-----7-----7---7-----7-----7---7-
|-----------------------------------------------------------------
|-5-5---5-5---5---5-5---5-5---5-----------------------------------
|---------------------------------3-3---3-3---3---3-3---3-3---3---
|
|guitar 2
|pm..............................................................
|-----------------------------------------------------------------
|-----------------------------------------------------------------
|-7-7-7-7-7-7-7-7-6-6-6-6-9-9-9-9-7-7-7-7-7-7-7-7-6-6-6-6-9-9-9-9-
|-----------------------------------------------------------------
|-5-5-5-5-5-5-5-5-4-4-4-4-7-7-7-7-5-5-5-5-5-5-5-5-4-4-4-4-7-7-7-7-
|-----------------------------------------------------------------

guitar 1
-----------------------------------------------------------------|
-----------------------------------------------------------------|
-----7-----7---7-----7-----7---7-----7-----7---7-----7-----7---7-|
-----------------------------------------------------------------|
-----------------------------------------------------------------|
-7-7---7-7---7---7-7---7-7---7---5-5---5-5---5---5-5---5-5---5---|
                                                                 |
 guitar 2                                                        |
-----------------------------------------------------------------|
-----------------------------------------------------------------|
-7-7-7-7-7-7-7-7-6-6-6-6-9-9-9-9-7-7-7-7-7-7-7-7-6-6-6-6-9-9-9-9-|
-----------------------------------------------------------------|
-5-5-5-5-5-5-5-5-4-4-4-4-7-7-7-7-5-5-5-5-5-5-5-5-4-4-4-4-7-7-7-7-|
-----------------------------------------------------------------|

guitars 1 & 2:

|-------------|
  |-------------|
  |-(pickslide)-| end of bridge!!
  |-x\\\\\\\\\--|
  |-x\\\\\\\\\--|
  |-------------|

Repeat Intro

Chorus 2:

guitar 1
|-----------------------------------------------------------------
|-----------------------------------------------------------------
|-----------------------------------------------------------------
|-7-7-7-7-7-7-7-7-7-7-7-7-7-7-7-7-4-4-4-4-4-4-4-4-4-4-4-4-4-4-4-4-
|-5-5-5-5-5-5-5-5-5-5-5-5-5-5-5-5-2-2-2-2-2-2-2-2-2-2-2-2-2-2-2-2-
|-----------------------------------------------------------------
|                                                                 
|guitar 2                                                         
|-----------------------------------------------------------------
|-----------------------------------------------------------------
|-7-7-7-7-7-7-7-7-7-7-7-7-7-7-7-7-7-7-7-7-7-7-7-7-7-7-7-7-7-7-7-7-
|-----------------------------------------------------------------
|-5-5-5-5-5-5-5-5-5-5-5-5-5-5-5-5-5-5-5-5-5-5-5-5-5-5-5-5-5-5-5-5-
|-----------------------------------------------------------------

guitar 
|-----------------------------------------------------------------
|-----------------------------------------------------------------
|-----------------------------------------------------------------
|-----------------------------------------------------------------
|-5-5-5-5-5-5-5-5-5-5-5-5-5-5-5-5-7-7-7-7-7-7-7-7-7-7-7-7-7-7-7-7-
|-3-3-3-3-3-3-3-3-3-3-3-3-3-3-3-3-5-5-5-5-5-5-5-5-5-5-5-5-5-5-5-5-
|                                                                 
|guitar 2                                                         
|-----------------------------------------------------------------
|-----------------------------------------------------------------
|-7-7-7-7-7-7-7-7-7-7-7-7-7-7-7-7-7-7-7-7-7-7-7-7-7-7-7-7-7-7-7-7-
|-----------------------------------------------------------------
|-5-5-5-5-5-5-5-5-5-5-5-5-5-5-5-5-5-5-5-5-5-5-5-5-5-5-5-5-5-5-5-5-
|-----------------------------------------------------------------

guitar 1
|-----------------------------------------------------------------
|-----------------------------------------------------------------
|-----------------------------------------------------------------
|-7-7-7-7-7-7-7-7-7-7-7-7-7-7-7-7-4-4-4-4-4-4-4-4-4-4-4-4-4-4-4-4-
|-5-5-5-5-5-5-5-5-5-5-5-5-5-5-5-5-2-2-2-2-2-2-2-2-2-2-2-2-2-2-2-2-
|-----------------------------------------------------------------
|                                                                 
|guitar 2                                                         
|-----------------------------------------------------------------
|-----------------------------------------------------------------
|-7-7-7-7-7-7-7-7-6-6-6-6-9-9-9-9-7-7-7-7-7-7-7-7-6-6-6-6-9-9-9-9-
|-----------------------------------------------------------------
|-5-5-5-5-5-5-5-5-4-4-4-4-7-7-7-7-5-5-5-5-5-5-5-5-4-4-4-4-7-7-7-7-
|-----------------------------------------------------------------

guitar 1
|-----------------------------------------------------------------
|-----------------------------------------------------------------
|-----------------------------------------------------------------
|-----------------------------------------------------------------
|-5-5-5-5-5-5-5-5-5-5-5-5-5-5-5-5-7-7-7-7-7-7-7-7-7-7-7-7-7-7-7-7-
|-3-3-3-3-3-3-3-3-3-3-3-3-3-3-3-3-5-5-5-5-5-5-5-5-5-5-5-5-5-5-5-5-
|                                                                
|guitar 2                                                         
|-------------------------------------------------------------------------
|-------------------------------------------------------------------------
|-7-7-7-7-7-7-7-7-6-6-6-6-9-9-9-9-9-9-9-9-9-9-9-9-11-11-11-11-14-14-14-14-
|-------------------------------------------------------------------------
|-5-5-5-5-5-5-5-5-4-4-4-4-7-7-7-7-7-7-7-7-7-7-7-7-9--9--9--9--12-12-12-12-
|-------------------------------------------------------------------------

repeat intro (4x)

outro:

guitar 1
||-----------------------------------------------------------------
||-----------------------------------------------------------------
||-----------------------------------------------------------------
||-----7-----7---7-----7-----7---7-----7-----7---7-----7-----7---7-
||-5-5---5-5---5---5-5---5-5---5-----------------------------------
||---------------------------------3-3---3-3---3---3-3---3-3---3---
||
||guitar 2 (fade out)
||-----------------------------------------------------------------
||-----------------------------------------------------------------
||-----------------------------------------------------------------
||-----------------------------------------------------------------
||-----------------------------------------------------------------
||-----------------------------------------------------------------

guitar 1
-----------------------------------------------------------------||
-----------------------------------------------------------------||
-----------------------------------------------------------------||(2x)
-----7-----7---7-----7-----7---7-----7-----7---7-----7-----7---7-||
-----------------------------------------------------------------||
-7-7---7-7---7---7-7---7-7---7---5-5---5-5---5---5-5---5-5---5---||
                                                                 ||
  guitar 2                                                       ||
-----------------------------------------------------------------||
-----------------------------------------------------------------||
-----------------------------------------------------------------||
-----------------------------------------------------------------||
-----------------------------------------------------------------||
-----------------------------------------------------------------||

guitar 1 
|-------------------------------------------------------------------|
|-------------------------------------------------------------------|
|---------7---------------7---------------7---------------7-------7-|
|-----7-----7---7-----7-----7---7-----7-----7---7-----7-----7---7-7-|
|-5-5---5-----5---5-5---5-----5---5-5---5-----5---5-5---5-----5---5-|
|-------------------------------------------------------------------|
|                                                                   |
| guitar 2                                                          |
|-------------------------------------------------------------------|
|-------------------------------------------------------------------|
|-------------------------------------------------------------------|
|-------------------------------------------------------------------|
|-------------------------------------------------------------------|
|-------------------------------------------------------------------| END!!

any questions or comments? email me at [email protected]
 
 
Kamikazee - Girlfriend :: indexed at Ultimate Guitar.
Girlfriend tabs @ 911Tabs

About the artist behind Girlfriend:

Kamikazee is a rock band from the Philippines composed of Jay Contreras (Lead Vocalist), Jomal Linao (Guitars/Back-up Vocals), Led Zeppelin Tuyay (Guitars), Jason "Puto" Astete (Bass Guitar) and Allan "Bords" Burdeos (drums).

Indexed at Wikipedia.

Show us your talent, perform Girlfriend!

Here you can post a video or audio performance. Tell me more ...
Where can we find your performance? Tell me more ...
Your comment:
Please, log in to post your performance.