Artists by letter: A B C D E F G H I J K L M N O P Q R S T U V W X Y Z 0-9

 
Chicksilog
Chicksilog - Kamikazee

Tabbed by: Monstoy Guitar

Check out the video tutorial of this song on my YouTube Channel!
https://www.youtube.com/watch?v=fwoyKQkm5j0


[Intro]

Rhythm
e|---------------------------------------------------------------------------|
B|---------------------------------------------------------------------------|
G|-----9---------------------------------------------------------------------|
D|---------------------------------------------------------------------------|
A|-----7---------------------------------------------------------------------|
E|---------------------------------------------------------------------------|

e|---------------------------------------------------------------------------|
B|---------------------------------------------------------------------------|
G|-----9---------------------------------------------------------------------|
D|---------------------------------------------------------------------------|
A|-----7---------------------------------------------------------------------|
E|---------------------------------------------------------------------------|

e|---------------------------------------------------------------------------|
B|---------------------------------------------------------------------------|
G|---------------------------------------------------------------------------|
D|-----9-----6-------9-------------------------------------------------------|
A|-----7--7--4--9----7--7----------------------------------------------------|
E|--------5-----7-------5----------------------------------------------------|

e|---------------------------------------------------------------------------|
B|---------------------------------------------------------------------------|
G|---------------------------------------------------------------------------|
D|---------------------------------------------------------------------------|
A|-----9-9-----------9-9-----------9-9---9-9---9-9---9-9---------------------|
E|-----7-7-x-x-x-x-x-7-7-x-x-x-x-x-7-7-x-7-7-x-7-7-x-7-7-x-x-----------------|

Lead
e|---------------------------------------------------------------------------|
B|---------------------------------------------------------------------------|
G|-----13--------------------------------------------------------------------|
D|---------------------------------------------------------------------------|
A|-----11--------------------------------------------------------------------|
E|---------------------------------------------------------------------------|

e|-----0-0-2h4-2-0---0-0-2h4-2-0---------------------------------------------|
B|-----------------4-------------4-------------------------------------------|
G|---------------------------------------------------------------------------|
D|---------------------------------------------------------------------------|
A|---------------------------------------------------------------------------|
E|---------------------------------------------------------------------------|

e|-----0-0-2h4-2-0-----------------------------------------------------------|
B|-----------------4-5-5-5-5-5-5-5-5-----------------------------------------|
G|---------------------------------------------------------------------------|
D|---------------------------------------------------------------------------|
A|---------------------------------------------------------------------------|
E|---------------------------------------------------------------------------|

e|-----0-0-2h4-2-0---0-0-2h4-2-0---------------------------------------------|
B|-----------------4-------------4-------------------------------------------|
G|---------------------------------------------------------------------------|
D|---------------------------------------------------------------------------|
A|---------------------------------------------------------------------------|
E|---------------------------------------------------------------------------|

e|-----0-0-2h4-2-0-----------------------------------------------------------|
B|-----------------4-5-5-x-x-x-x-x-5-5-x-x-x-x-x-5-5-x-5-5-x-5-5-x-5-5-x-x---|
G|---------------------------------------------------------------------------|
D|---------------------------------------------------------------------------|
A|---------------------------------------------------------------------------|
E|---------------------------------------------------------------------------|


[Verse 1]

Rhythm
e|---------------------------------------------------------------------------|4x
B|---------------------------------------------------------------------------|
G|---------------------------------------------------------------------------|
D|-----9--6------------------------------------------------------------------|
A|-----7--4--7---------------------------------------------------------------|
E|-----------5---------------------------------------------------------------|

Lead
e|---------------------------------------------------------------------------|4x
B|---------------------------------------------------------------------------|
G|-----9-9-8-8-6-6-----------------------------------------------------------|
D|-----------------9-9-7-7-6-6-7-7-9-9---------------------------------------|
A|---------------------------------------------------------------------------|
E|---------------------------------------------------------------------------|


[Intro 2]

Alternate Ending (No Palm Mutes)
e|---------------------------------------------------------------------------|
B|---------------------------------------------------------------------------|
G|---------------------------------------------------------------------------|
D|-----9-----6-------9-------------------------------------------------------|
A|-----7--7--4--9----7--7--7-7-7-7-7-7-7-------------------------------------|
E|--------5-----7-------5--5-5-5-5-5-5-5-------------------------------------|


[Verse 2]

Rhythm
e|---------------------------------------------------------------------------|3x
B|---------------------------------------------------------------------------|
G|---------------------------------------------------------------------------|
D|-----9--6------------------------------------------------------------------|
A|-----7--4--7---------------------------------------------------------------|
E|-----------5---------------------------------------------------------------|

e|---------------------------------------------------------------------------|
B|---------------------------------------------------------------------------|
G|---------------------------------------------------------------------------|
D|-----9--6------------------------------------------------------------------|
A|-----7--4--7--9------------------------------------------------------------|
E|-----------5--7------------------------------------------------------------|


Lead
e|---------------------------------------------------------------------------|3x
B|---------------------------------------------------------------------------|
G|-----9-9-8-8-6-6-----------------------------------------------------------|
D|-----------------9-9-7-7-6-6-7-7-9-9---------------------------------------|
A|---------------------------------------------------------------------------|
E|---------------------------------------------------------------------------|

e|---------------------------------------------------------------------------|
B|---------------------------------------------------------------------------|
G|-----9-9-8-8-6-6-----------------------------------------------------------|
D|-----------------9-9-------------------------------------------------------|
A|----------------------7--9-------------------------------------------------|
E|----------------------5--7-------------------------------------------------|


[Pre-Chorus]

Rhythm
e|---------------------------------------------------------------------------|2x
B|---------------------------------------------------------------------------|
G|---------------------------------------------------------------------------|
D|-------------------------------------------------9-9-9-9-9-9-9-------------|
A|---------7-------7-----9-------9-----11-------11-7-7-7-7-7-7-7-0-----------|
E|-----5-5-5-5-5-5-5-7-7-7-7-7-7-7-9-9-9--9-9-9-9----------------0-----------|

e|---------------------------------------------------------------------------|3x
B|---------------------------------------------------------------------------|
G|---------------------------------------------------------------------------|
D|---------------------------------------------------------------------------|
A|-----7-7-7--7-7-----11-11-11-11-9-9-9-9------------------------------------|
E|-----5-5-5--5-5-x-x-9--9--9--9--7-7-7-7------------------------------------|

e|---------------------------------------------------------------------------|
B|---------------------------------------------------------------------------|
G|---------------------------------------------------------------------------|
D|---------------------------------------------------------------------------|
A|-----7-7-7--7-7-----11-11-11-11-9------------------------------------------|
E|-----5-5-5--5-5-x-x-9--9--9--9--7------------------------------------------|

Lead
e|---------------------------------------------------------------------------|2x
B|---------------------------------------------------------------------------|
G|-------------------------------------------------9-9-9-9-9-9-9-------------|
D|---------------------------------------------------------------------------|
A|---------7-------7-----9-------9-----11-------11-7-7-7-7-7-7-7-0-----------|
E|-----5-5-5-5-5-5-5-7-7-7-7-7-7-7-9-9-9--9-9-9-9----------------0-----------|

e|---------------------------------------------------------------------------|
B|---------------------------------------------------------------------------|2x
G|--------------------13-13-13-13-11-11-11-11--------------------------------|
D|---------------------------------------------------------------------------|
A|-----7-7-7--7-7-----11-11-11-11-9--9--9--9---------------------------------|
E|-----5-5-5--5-5-x-x--------------------------------------------------------|

e|---------------------------------------------------------------------------|
B|---------------------------------------------------------------------------|
G|--------------------13-13-13-13-11-----------------------------------------|
D|---------------------------------------------------------------------------|
A|-----7-7-7--7-7-----11-11-11-11-9------------------------------------------|
E|-----5-5-5--5-5-x-x--------------------------------------------------------|


[Chorus]

Rhythm

e|---------------------------------------------------------------------------|
B|---------------------------------------------------------------------------|
G|-----9---------------------------------------------------------------------|
D|---------------------------------------------------------------------------|
A|-----7---------------------------------------------------------------------|
E|---------------------------------------------------------------------------|

e|---------------------------------------------------------------------------|
B|---------------------------------------------------------------------------|
G|---------------------------------------------------------------------------|
D|-----9-----6-------9-------------------------------------------------------|
A|-----7--7--4--9----7--7--9-------------------------------------------------|
E|--------5-----7-------5--7-------------------------------------------------|

e|---------------------------------------------------------------------------|
B|---------------------------------------------------------------------------|
G|---------------------------------------------------------------------------|
D|-----9-----6-------9-------------------------------------------------------|
A|-----7--7--4--9----7--7--7-7-7-7-7-7-7-7-----------------------------------|
E|--------5-----7-------5--5-5-5-5-5-5-5-5-----------------------------------|


Lead
e|-----0-0-2h4-2-0---0-0-2h4-2-0---------------------------------------------|
B|-----------------4-------------4-------------------------------------------|
G|---------------------------------------------------------------------------|
D|---------------------------------------------------------------------------|
A|---------------------------------------------------------------------------|
E|---------------------------------------------------------------------------|

e|-----0-0-2h4-2-0-----------------------------------------------------------|
B|-----------------4-5-5-5-5-5-5-5-------------------------------------------|
G|---------------------------------------------------------------------------|
D|---------------------------------------------------------------------------|
A|---------------------------------------------------------------------------|
E|---------------------------------------------------------------------------|

e|---------------------------------------------------------------------------|2x
B|---------------------------------------------------------------------------|
G|---------------------------------------------------------------------------|
D|-----9-----6-------9-------------------------------------------------------|
A|-----7--7--4--9----7--7--9-------------------------------------------------|
E|--------5-----7-------5--7-------------------------------------------------|

e|---------------------------------------------------------------------------|
B|---------------------------------------------------------------------------|
G|---------------------------------------------------------------------------|
D|-----9-----6-------9-------------------------------------------------------|
A|-----7--7--4--9----7--7--7-7-7-7-7-7-7-7-----------------------------------|
E|--------5-----7-------5--5-5-5-5-5-5-5-5-----------------------------------|


[Guitar Solo]

Rhythm
e|---------------------------------------------------------------------------|
B|---------------------------------------------------------------------------|
G|---------------------------------------------------------------------------|
D|----8--9--6--4--6----------------------------------------------------------|
A|----6--7--4--2--4--7-------------------------------------------------------|
E|-------------------5-------------------------------------------------------|

e|---------------------------------------------------------------------------|
B|---------------------------------------------------------------------------|
G|---------------------------------------------------------------------------|
D|----9--6--4--6-------------------------------------------------------------|
A|----7--4--2--4--7----------------------------------------------------------|
E|----------------5----------------------------------------------------------|

e|---------------------------------------------------------------------------|
B|---------------------------------------------------------------------------|
G|---------------------------------------------------------------------------|
D|---------------------------------------------------------------------------|
A|-----7-7-7--7-7-----11-11-11-11-9-9-9-9------------------------------------|
E|-----5-5-5--5-5-x-x-9--9--9--9--7-7-7-7------------------------------------|

e|---------------------------------------------------------------------------|
B|---------------------------------------------------------------------------|
G|---------------------------------------------------------------------------|
D|---------------------------------------------------------------------------|
A|-------7-7--7-7-----11-11-11-11-9-9-9-9------------------------------------|
E|-------5-5--5-5-x-x-9--9--9--9--7-7-7-7------------------------------------|

e|---------------------------------------------------------------------------|
B|---------------------------------------------------------------------------|
G|---------------------------------------------------------------------------|
D|---------------------------------------------------------------------------|
A|-----7-7-7--7-7-----11-11-11-11-9-9-9-9------------------------------------|
E|-----5-5-5--5-5-x-x-9--9--9--9--7-7-7-7------------------------------------|

e|---------------------------------------------------------------------------|
B|---------------------------------------------------------------------------|
G|---------------------------------------------------------------------------|
D|---------------------------------------------------------------------------|
A|-------7-7--7-7-----11-11-11-11-9-9-9-9------------------------------------|
E|-------5-5--5-5-x-x-9--9--9--9--7-7-7-7------------------------------------|

e|---------------------------------------------------------------------------|
B|---------------------------------------------------------------------------|
G|-----------------------9-9-9-9---------------------------------------------|
D|---------------------------------------------------------------------------|
A|--------7-----9-----11-7-7-7-7---------------------------------------------|
E|----5-5-5-7-7-7-9-9-9------------------------------------------------------|

e|---------------------------------------------------------------------------|
B|---------------------------------------------------------------------------|
G|-----------------------13-13-13-13-----------------------------------------|
D|---------------------------------------------------------------------------|
A|--------7-----9-----11-11-11-11-11-----------------------------------------|
E|----5-5-5-7-7-7-9-9-9------------------------------------------------------|

e|---------------------------------------------------------------------------|
B|---------------------------------------------------------------------------|
G|-----------------------9-9-9-9---------------------------------------------|
D|---------------------------------------------------------------------------|
A|--------7-----9-----11-7-7-7-7---------------------------------------------|
E|----5-5-5-7-7-7-9-9-9------------------------------------------------------|

e|---------------------------------------------------------------------------|
B|---------------------------------------------------------------------------|
G|---------------------------------------------------------------------------|
D|---------------------------------------------------------------------------|
A|----7-7--9-9--7-7--9-9-----------------------------------------------------|
E|----5-5--7-7--5-5--7-7-----------------------------------------------------|

Lead
e|---------------------------------------------------------------------------|
B|----10-10-10-12-12-12-12-12-12-12-12-10-10-10-10-9-9-9-9-------------------|
G|---------------------------------------------------------------------------|
D|---------------------------------------------------------------------------|
A|---------------------------------------------------------------------------|
E|---------------------------------------------------------------------------|

e|---------------------------------------------------------------------------|2x
B|----12-12-12-12-12-12-12-12-10-10-10-10-9-9-9-9----------------------------|
G|---------------------------------------------------------------------------|
D|---------------------------------------------------------------------------|
A|---------------------------------------------------------------------------|
E|---------------------------------------------------------------------------|

e|---------------------------------------------------------------------------|
B|----5-5-5-5-5-5-5-5-4-4-4-4-0-0-0-0----------------------------------------|
G|---------------------------------------------------------------------------|
D|---------------------------------------------------------------------------|
A|---------------------------------------------------------------------------|
E|---------------------------------------------------------------------------|

e|---------------------------------------------------------------------------|2x
B|----12-12-12-12-12-12-12-12-10-10-10-10-9-9-9-9----------------------------|
G|---------------------------------------------------------------------------|
D|---------------------------------------------------------------------------|
A|---------------------------------------------------------------------------|
E|---------------------------------------------------------------------------|

e|---------------------------------------------------------------------------|
B|----5-5-5-5-5-5-5-5-4-4-4-4-0-0-0-0----------------------------------------|
G|---------------------------------------------------------------------------|
D|---------------------------------------------------------------------------|
A|---------------------------------------------------------------------------|
E|---------------------------------------------------------------------------|

e|---------------------------------------------------------------------------|
B|----12-10-9-0--10-9-0--12-10-0--10-9-0--9-7-0------------------------------|
G|---------------------------------------------------------------------------|
D|---------------------------------------------------------------------------|
A|---------------------------------------------------------------------------|
E|---------------------------------------------------------------------------|

e|---------------------------------------------------------------------------|
B|----10-9-0--12-10-0--10-9-0--7-9-0--10-9-0-0-------------------------------|
G|---------------------------------------------------------------------------|
D|---------------------------------------------------------------------------|
A|---------------------------------------------------------------------------|
E|---------------------------------------------------------------------------|

e|---------------------------------------------------------------------------|
B|----12-10-0--9-10-0--12-10-0"9h10p9-0--12-10-0-----------------------------|
G|---------------------------------------------------------------------------|
D|---------------------------------------------------------------------------|
A|---------------------------------------------------------------------------|
E|---------------------------------------------------------------------------|

e|---------------------------------------------------------------------------|
B|----12-10-0-9h10p9-0-10-9-0-9h10p9-0-10-9-0--------------------------------|
G|---------------------------------------------------------------------------|
D|---------------------------------------------------------------------------|
A|---------------------------------------------------------------------------|
E|---------------------------------------------------------------------------|

e|---------------------------------------------------------------------------|
B|---------------------------------------------------------------------------|
G|-----------------------9-9-9-9---------------------------------------------|
D|---------------------------------------------------------------------------|
A|--------7-----9-----11-7-7-7-7---------------------------------------------|
E|----5-5-5-7-7-7-9-9-9------------------------------------------------------|

e|---------------------------------------------------------------------------|
B|---------------------------------------------------------------------------|
G|-----------------------13-13-13-13-----------------------------------------|
D|---------------------------------------------------------------------------|
A|--------7-----9-----11-11-11-11-11-----------------------------------------|
E|----5-5-5-7-7-7-9-9-9------------------------------------------------------|

e|---------------------------------------------------------------------------|
B|---------------------------------------------------------------------------|
G|-----------------------9-9-9-9---------------------------------------------|
D|---------------------------------------------------------------------------|
A|--------7-----9-----11-7-7-7-7---------------------------------------------|
E|----5-5-5-7-7-7-9-9-9------------------------------------------------------|

e|---------------------------------------------------------------------------|
B|---------------------------------------------------------------------------|
G|---------------------------------------------------------------------------|
D|--------6h7p6-----6h7p6----------------------------------------------------|
A|----0-0--------------------------------------------------------------------|
E|--------------7-7----------------------------------------------------------|


[Verse 3]

Rhythm
e|---------------------------------------------------------------------------|2x
B|---------------------------------------------------------------------------|
G|---------------------------------------------------------------------------|
D|-----9--6------------------------------------------------------------------|
A|-----7--4--7---------------------------------------------------------------|
E|-----------5---------------------------------------------------------------|

e|---------------------------------------------------------------------------|
B|---------------------------------------------------------------------------|
G|-----9---------------------------------------------------------------------|
D|---------------------------------------------------------------------------|
A|-----7-----7--9------------------------------------------------------------|
E|-----------5--7------------------------------------------------------------|


Lead
e|---------------------------------------------------------------------------|2x
B|---------------------------------------------------------------------------|
G|---------------------------------------------------------------------------|
D|-----9--6------------------------------------------------------------------|
A|-----7--4--7---------------------------------------------------------------|
E|-----------5---------------------------------------------------------------|

e|---------------------------------------------------------------------------|
B|---------------------------------------------------------------------------|
G|-----9--11--13--16-----9"11------------------------------------------------|
D|---------------------------------------------------------------------------|
A|-----7--9---10--14-----7--9--7--9------------------------------------------|
E|-----------------------------5--7------------------------------------------|


[Pre-Chorus 2]

Rhythm
e|---------------------------------------------------------------------------|2x
B|---------------------------------------------------------------------------|
G|-------------------------------------------------9-9-9-9-9-9-9-------------|
D|---------------------------------------------------------------------------|
A|---------7-------7-----9-------9-----11-------11-7-7-7-7-7-7-7-0-----------|
E|-----5-5-5-5-5-5-5-7-7-7-7-7-7-7-9-9-9--9-9-9-9----------------0-----------|

e|---------------------------------------------------------------------------|3x
B|---------------------------------------------------------------------------|
G|---------------------------------------------------------------------------|
D|---------------------------------------------------------------------------|
A|-----7-7-7--7-7-----11-11-11-11-9-9-9-9------------------------------------|
E|-----5-5-5--5-5-x-x-9--9--9--9--7-7-7-7------------------------------------|

e|---------------------------------------------------------------------------|
B|---------------------------------------------------------------------------|
G|---------------------------------------------------------------------------|
D|---------------------------------------------------------------------------|
A|-----7-7-7--7-7-----11-11-11-11-9------------------------------------------|
E|-----5-5-5--5-5-x-x-9--9--9--9--7------------------------------------------|


Lead
e|---------------------------------------------------------------------------|2x
B|---------------------------------------------------------------------------|
G|-------------------------------------------------9-9-9-9-9-9-9-------------|
D|---------------------------------------------------------------------------|
A|---------7-------7-----9-------9-----11-------11-7-7-7-7-7-7-7-0-----------|
E|-----5-5-5-5-5-5-5-7-7-7-7-7-7-7-9-9-9--9-9-9-9----------------0-----------|

e|---------------------------------------------------------------------------|3x
B|---------------------------------------------------------------------------|
G|--------------------13-13-13-13-11-11-11-11--------------------------------|
D|---------------------------------------------------------------------------|
A|-----7-7-7--7-7-----11-11-11-11-9--9--9--9---------------------------------|
E|-----5-5-5--5-5-x-x--------------------------------------------------------|

e|---------------------------------------------------------------------------|
B|---------------------------------------------------------------------------|
G|--------------------13-13-13-13-11-----------------------------------------|
D|---------------------------------------------------------------------------|
A|-----7-7-7--7-7-----11-11-11-11-9------------------------------------------|
E|-----5-5-5--5-5-x-x--------------------------------------------------------|


[Chorus] x2

Rhythm

e|---------------------------------------------------------------------------|
B|---------------------------------------------------------------------------|
G|-----9---------------------------------------------------------------------|
D|---------------------------------------------------------------------------|
A|-----7---------------------------------------------------------------------|
E|---------------------------------------------------------------------------|

e|---------------------------------------------------------------------------|
B|---------------------------------------------------------------------------|
G|---------------------------------------------------------------------------|
D|-----9-----6-------9-------------------------------------------------------|
A|-----7--7--4--9----7--7--9-------------------------------------------------|
E|--------5-----7-------5--7-------------------------------------------------|

e|---------------------------------------------------------------------------|
B|---------------------------------------------------------------------------|
G|---------------------------------------------------------------------------|
D|-----9-----6-------9-------------------------------------------------------|
A|-----7--7--4--9----7--7--7-7-7-7-7-7-7-7-----------------------------------|
E|--------5-----7-------5--5-5-5-5-5-5-5-5-----------------------------------|


Lead
e|-----0-0-2h4-2-0---0-0-2h4-2-0---------------------------------------------|
B|-----------------4-------------4-------------------------------------------|
G|---------------------------------------------------------------------------|
D|---------------------------------------------------------------------------|
A|---------------------------------------------------------------------------|
E|---------------------------------------------------------------------------|

e|-----0-0-2h4-2-0-----------------------------------------------------------|
B|-----------------4-5-5-5-5-5-5-5-------------------------------------------|
G|---------------------------------------------------------------------------|
D|---------------------------------------------------------------------------|
A|---------------------------------------------------------------------------|
E|---------------------------------------------------------------------------|

e|---------------------------------------------------------------------------|2x
B|---------------------------------------------------------------------------|
G|---------------------------------------------------------------------------|
D|-----9-----6-------9-------------------------------------------------------|
A|-----7--7--4--9----7--7--9-------------------------------------------------|
E|--------5-----7-------5--7-------------------------------------------------|

e|---------------------------------------------------------------------------|
B|---------------------------------------------------------------------------|
G|---------------------------------------------------------------------------|
D|-----9-----6-------9-------------------------------------------------------|
A|-----7--7--4--9----7--7--7-7-7-7-7-7-7-7-----------------------------------|
E|--------5-----7-------5--5-5-5-5-5-5-5-5-----------------------------------|



************************************

| x  Dead note
| h  Hammer-on
| p  Pull-off

************************************
 
 
Kamikazee - Chicksilog :: indexed at Ultimate Guitar.
Chicksilog tabs @ 911Tabs

About the artist behind Chicksilog:

Kamikazee is a rock band from the Philippines composed of Jay Contreras (Lead Vocalist), Jomal Linao (Guitars/Back-up Vocals), Led Zeppelin Tuyay (Guitars), Jason "Puto" Astete (Bass Guitar) and Allan "Bords" Burdeos (drums).

Indexed at Wikipedia.

Show us your talent, perform Chicksilog!

Here you can post a video or audio performance. Tell me more ...
Where can we find your performance? Tell me more ...
Your comment:
Please, log in to post your performance.