Artists by letter: A B C D E F G H I J K L M N O P Q R S T U V W X Y Z 0-9

 
Sunnyside
Tuning : Step Down.

A:
e|----2-2---7-7---2-2---5-5----2-2-2-2------2-2-2-2--------------|  X2
B|----3-3---8-8---3-3---7-7----3-3-3-3------3-3-3-3--------------|
G|----2-2---9-9---4-4---7-7----0-0-0-0------2-2-2-2--------------|
D|-----------------------------2-2-2-2------0-0-0-0--------------|
A|---------------------------------------------------------------|
E|---------------------------------------------------------------|

After the end of the second time you play:
B:
e|---2-2-2-2------2-2-2-2------2-2-2-2----2-2-2-2---2-2-2-2--------|
B|---3-3-3-3------3-3-3-3------3-3-3-3----3-3-3-3---3-3-3-3--------|
G|---0-0-0-0------2-2-2-2------0-0-0-0----0-0-0-0---2-2-2-2--------|
D|----------------0-0-0-0------2-2-2-2--------------0-0-0-0--------|
A|---2-2-2-2------------------------------2-2-2-2------------------|
E|-----------------------------------------------------------------|
LYRICS:
Play A tab 4 times during lyrics. One for each sentence. Then play B tab after every verse.

I wake up every morning, stretch my arms out wide
Splits my chest wide open, and I put my heart back inside.
You used to keep it in a jar but this metaphor has gone too far
And now it's just a work of art on my wall and in my mind.

When you get the courage and swim beyond the waves
And the stillness of the ocean will make our fear go away
Yeah, I fucked up good and well
And you put me through fucking hell
But good luck finding someone who can love you better than I,
Than I.

I wanted to be tangled up in someone long and blonde.
So honest in my belief that nothing would go wrong
But now all we can say we have are some photographs and wiener dog
That chews up everything I love and all the things you left behind
Behind

You're the girl I lost in Sunnyside
You're the girl I lost in Sunnyside
You're the girl I lost in Sunnyside
You're the girl I lost in Sunnyside

 
 
Kaki King - Sunnyside :: indexed at Ultimate Guitar.
Sunnyside tabs @ 911Tabs

About the artist behind Sunnyside:

Kaki King (born August 24, 1979 as Katherine Elizabeth King) is an American guitar player and singer-songwriter from Atlanta, Georgia.

Indexed at Wikipedia.

Show us your talent, perform Sunnyside!

Here you can post a video or audio performance. Tell me more ...
Where can we find your performance? Tell me more ...
Your comment:
Please, log in to post your performance.