Artists by letter: A B C D E F G H I J K L M N O P Q R S T U V W X Y Z 0-9

 
Ritual Dance
OK so this is ALMOST the whole song...
i couldn't figure out the super-fast tapping at the end but i will eventually and i will update...

any corrections please let me know: [email protected]

this is tuned in double drop d with two c's on the top: D-A-D-G-C-C
and the two c's are the same pitch.
*=harmonic
S= guitar slap
>= slide up or 5-5>7-7---------------------------------------------------|
2-2-2>5-5>7-7---------------------------------------------------|
3-----------------------------2-2-2------------2-2-2------------|
4------------------3-3-3-3-3-3-3-3-3-3-3-3-3-3-3-3-3-3----------|
5------------------3-3-3-3-3-3-3-3-3-3-3-3-3-3-3-3-3-3----------|
6------------------3-3-3-3-3-3-3-3-3-3-3-3-3-3-3-3-3-3----------|

Part Two
1--9-9-9>12-12-0-4-4-4-4-4-4-0-0-0-0-0-0-2-2-2-2-2-2---------------------|
2--9-9-9>12-12-0-4-4-4-4-4-4-0-0-0-0-0-0-2-2-2-2-2-2---------------------|
3-----------------------4-4-4-4-4-4-0-0-0-0-0-0-2-2-2-2-2-2--------------|
4------------------------------------------------------------------------|
5------------------------------------------------------------------------|
6------------------------------------------------------------------------|

Part Three
1-5-4-2-----------------------------------------------------------|
2-5-4-2-----------------------------------------------------------|
3-----------------------------2-2-2------------2-2-2--------------|
4------------------3-3-3-3-3-3-3-3-3-3-3-3-3-3-3-3-3-3------------|
5------------------3-3-3-3-3-3-3-3-3-3-3-3-3-3-3-3-3-3------------|
6------------------3-3-3-3-3-3-3-3-3-3-3-3-3-3-3-3-3-3------------|

Part 4
1------------------------------------------|
2------------------------------------------|
3----------------------------------5-4-0---|
4-1-1-1-1-3-3-3-3-5-5-5-5-5-5-5------------|
5-1-1-1-1-3-3-3-3-5-5-5-5-5-5-5------------|
6-1-1-1-1-3-3-3-3-5-5-5-5-5-5-5------------|

Fill-in one
1-4-4-4-4-4-4-5-4-2-0-2---------|
2-4-4-4-4-4-4-5-4-2-0-2---------|
3-4-4-4-4-4-4-5-4-2-0-2---------|
4-------------------------------|
5-------------------------------|
6-------------------------------|

Fill in two
1-4-4-4-4-4-4-5-7-9-12-14----------|
2-4-4-4-4-4-4-5-7-9-12-14----------|
3-4-4-4-4-4-4-5-7-9-12-14----------|
4----------------------------------|
5----------------------------------|
6----------------------------------|

Air tap one [tap strings, no strumming or picking]
1-2p0--------------------------------------------|
2-2p0--------------------------------------------|
3-------9p0-7p0----------------------------------|
4------------------------------------------------|
5----------------------3p0--7-----5p0--10--------|
6--------------------4--------7--6---------10----|

Air tap two
1----------------------------------------------------------------|
2----------------------------------------------------------------|
3-2-2-2-2-2-2-2-2-2-2-2-2-2-2-2-2-2-2-2-2-2-2-2------------------|
4-2-2-2-2-2-2-2-2-2-2-2-2-2-2-2-2-2-2-2-2-2-2-2------------------|
5------------3------------3-3------------5------------9*10-------|
6------------3------------3-3------------5-----------------------|

order:

intro x3
part one x2
part two x1
part one x2
part two x1
part three x2
part four x2
Air tap one x1
fill onex1
Air tap one x1
fill two x1
air tap two x2 or 3 at least

and then the finish with the fast tapping which will be coming...
 
 
Kaki King - Ritual Dance :: indexed at Ultimate Guitar.
Ritual Dance tabs @ 911Tabs

About the artist behind Ritual Dance:

Kaki King (born August 24, 1979 as Katherine Elizabeth King) is an American guitar player and singer-songwriter from Atlanta, Georgia.

Indexed at Wikipedia.

Show us your talent, perform Ritual Dance!

Here you can post a video or audio performance. Tell me more ...
Where can we find your performance? Tell me more ...
Your comment:
Please, log in to post your performance.