Artists by letter: A B C D E F G H I J K L M N O P Q R S T U V W X Y Z 0-9

 
Ritual Dance
so this is most of the song, shown in the movie august rush...this is my first guitar 
that requires this style of playing and this tuning.

tuning is DADGCC
for the intro of this song you will need to do harmonics and guitar slaps

 harmonic
SS slap the guitar on side
SH slap harmonic
/ slide up
P pull off
H hammer on
^ slightly pull string up and down
t tap the note(s)
tt tap note(s) many times

C-----------------------------------------------------------||
C-----------------------------------------------------------||
G----------------------------------------------------------.||
D-----0-3-3-3-3-5-5-5-5--5-0-----0-3-3-3-3-5-5-5-5--5-0----.||
A-----0-3-3-3-3-5-5-5-5--5-0-----0-3-3-3-3-5-5-5-5--5-0-----||
D-----0-3-3-3-3-5-5-5-5--5-0-SS--0-3-3-3-3-5-5-5-5--5-0-SS--||

as you can see you repeat it twice...

C||--2-2/5-5/7-7P0-0-0-0-0-0-0-0-2-2/5-5/7-7P0-0-0-0-0-0-0-0-0------|
C||--2-2/5-5/7-7P0-0-0-0-2-0-0-0-2-2/5-5/7-7P0-0-0-0-2-2-0-0-0------|
G||.-2-2/5-5/7-7P0-0-0-0-2-0-0-0-2-2/5-5/7-7P0-0-0-0-2-2-0-0-0------|
D||.----------------------------------------------------------------|
A||-----------------------------------------------------------------|
D||-----------------------------------------------------------------|

C-2-5-5-12--4-4-4-4-4-4-------------0-0-0-------|
C-2-5-5-12--4-4-4-4-4-4-------------0-0-2-------|
G-2-5-5-12--2-2-2-2-2-2-0-7-7-7-7-0-0-0-2-------|
D-----------2-2-2-2-2-2-0-0-0-0-0-0-------------|
A-----------------------------------------------|
D-----------------------8-8-8-8-8-8-------------|

C-2-2/5-5/7-7P0-0-0-0-0-0-0-0-2-2/5-5/7-7P0-0-0-0-0-0-0-0-0------|
C-2-2/5-5/7-7P0-0-0-0-2-0-0-0-2-2/5-5/7-7P0-0-0-0-2-2-0-0-0------|
G-2-2/5-5/7-7P0-0-0-0-2-0-0-0-2-2/5-5/7-7P0-0-0-0-2-2-0-0-0------|
D----------------------------------------------------------------|
A----------------------------------------------------------------|
D----------------------------------------------------------------|

C-2-5-5-12--4-4-4-4-4-4-------------0-0-0--------||
C-2-5-5-12--4-4-4-4-4-4-------------0-0-2--------||
G-2-5-5-12--2-2-2-2-2-2-0-7-7-7-7-0-0-0-2-------.||
D-----------2-2-2-2-2-2-0-0-0-0-0-0-------------.||
A------------------------------------------------||
D-----------------------8-8-8-8-8-8--------------||

C-5-4-2-0-------------------------------0--||-0-0-0-0-0-0-2-|
C-5-4-2-0-------------------------------2--||-0-0-0-0-0-0-2-|
G-7-5-2-0-0-2-2-2-2-2-0-0-2-2-2-2-2-0-0-2-.||-0-0-0-0-0-0-2-|
D---------3-3-3-3-3-3-3-3-3-3-3-3-3-3-3-3-.||---------------|
A---------3-3-3-3-3-3-3-3-3-3-3-3-3-3-3-3--||---------------|
D---------3-3-3-3-3-3-3-3-3-3-3-3-3-3-3-3--||---------------|

C-----------------0--------------------0---------------------0-----0-|
C-----------------0--------------------0---------------------0-----0-|
G-------------------4-0------------------4-0-------------------4-0-0-|
D-1-1-1-1-3-3-3-5------1-1-1-1-3-3-3-5-------1-1-1-1-3-3-3-5-------7-|
A-1-1-1-1-3-3-3-5------1-1-1-1-3-3-3-5-------1-1-1-1-3-3-3-5-------7-|
D-1-1-1-1-3-3-3-5------1-1-1-1-3-3-3-5-------1-1-1-1-3-3-3-5-------7-|

C--2-2/5-5/7-7-0-0-0-0-0-0-0-0-------||
C--2-2/5-5/7-7-0-0-0-0-2-0-0-0-------||
G--2-2/5-5/7-7-0-0-0-0-2-0-0-0------.||
D-----------------------------------.|| 2x
A------------------------------------||
D------------------------------SS----||

C-2-2-5-12--4-4-4-4-4-4-5-4-2-0-2^---|
C-2-2-5-12--4-4-4-4-4-4-5-4-2-0-2^---|
G-2-2-5-12--2-2-2-2-2-2--------------|
D-----------2-2-2-2-2-2--------------|
A------------------------------------|
D------------------------------------|

C--2-2/5-5/7-7-0-0-0-0-0-0-0-0-------||
C--2-2/5-5/7-7-0-0-0-0-2-0-0-0-------||
G--2-2/5-5/7-7-0-0-0-0-2-0-0-0------.||
D-----------------------------------.|| 2x
A------------------------------------||
D------------------------------SS----||

C-2-2-5-12--4-4-4-4-4-4-5-7-9-12-14^-|
C-2-2-5-12--4-4-4-4-4-4-5-7-9-12-14^-|
G-2-2-5-12--2-2-2-2-2-2--------------|
D-----------2-2-2-2-2-2--------------|
A------------------------------------|
D------------------------------------|

C-5-4-2-0--------------7-5-----|
C-5-4-2-0--------------7-5-----|
G-7-5-2-0-2p0tt2p0tt---7-5-----|
D---------2P0tt2P0tt---7-5-----|
A---------3t---5t------7-5-----|
D---------3t---5t------7-5-----|
                       SH

and after this a lot of tapping on both the strings, to creat harmonics and to sound the 
and on the side of the guitar...but I am not yet at that level...well thanks if you 
anything to correct or add, just let me know!
 
 
Kaki King - Ritual Dance :: indexed at Ultimate Guitar.
Ritual Dance tabs @ 911Tabs

About the artist behind Ritual Dance:

Kaki King (born August 24, 1979 as Katherine Elizabeth King) is an American guitar player and singer-songwriter from Atlanta, Georgia.

Indexed at Wikipedia.

Show us your talent, perform Ritual Dance!

Here you can post a video or audio performance. Tell me more ...
Where can we find your performance? Tell me more ...
Your comment:
Please, log in to post your performance.