Artists by letter: A B C D E F G H I J K L M N O P Q R S T U V W X Y Z 0-9

 
Doing The Wrong Thing
Doing The Wrong Thing - Kaki King
Tabbed by: Chris Bishop
Email: [email protected]
Tuning: E-G-D-F#-B-F#

[INTRO]
F#|--3--5--0~---x--3--5--0--1--0------x---------------x--|
B |-------------x-----------------3~--x--0--2--3--0~--x--|
F#|-------------x---------------------x---------------x--|
D |--4--5--0~---x--4--5--0--2--0------x---------------x--|
G |-------------x-----------------4~--x--0--2--4--0~--x--|
E |-------------x---------------------x---------------x--|

                                                [repeat this last section]      
F#|--3--5--0--1--0------------------------x-------------------0---------------|
B |-----------------3--2--3--0--2--0------x--3~--2~-----0--3-----2~/7--0~-----|
F#|-----------------------------------1~--x----------1------------------------|
D |--4--5--0--2--0------------------------x-------------------0---------------|
G |-----------------4--2--4--0--2--0------x--4~--2~-----0--4-----2~/7--0~-----|
E |-----------------------------------0~--x----------0------------------------|

 [VERSE/CHORUS]                                           [repeat 2x]
F#|--5-----5----0-----0----1----0----------------------------------------------|
B |------0---0------0---0----0----0--3-----3----2-----2---/7-----7----0-----0--|
F#|----0----------0----------------------0---0------0---0-/----0---0------0---0|
D |--5----------0----------2----0------0----------0-------/--0----------0------|
G |----------------------------------4----------2---------/7----------0--------|
E |----------------------------------------------------------------------------|

                                                          [repeat 2x]
F#|--3-----3----1-----1----5-----5----0-----0--------------------------0--------|
B |------0---0------0---0------0---0------0---0--3-----3----5-----5----------0--|
F#|----0----------0----------0----------0------------0---0------0---0------0---0|
D |--4----------2----------5----------0------------0----------0----------0------|
G |----------------------------------------------4----------5----------0--------|
E |-----------------------------------------------------------------------------|

                                               [repeat only this section 2x]
F#|----------------------------------------------------------------------------|
B |--3-----3----2-----2-----------0--3-----3----2-----2---/7-----7----0-----0--|
F#|------0---0------0---0--1-------------0---0------0---0-/----0---0------0---0|
D |----0----------0------------0-------0----------0-------/--0----------0------|
G |--4----------2------------0----0--4----------2---------/7----------0--------|
E |------------------------0---------------------------------------------------|

F#|--3-----3----1-----1----5-----5----0-----0--------------------------0--------|
B |------0---0------0---0------0---0------0---0--3-----3----5-----5----------0--|
F#|----0----------0----------0----------0------------0---0------0---0------0---0|
D |--4----------2----------5----------0------------0----------0----------0------|
G |----------------------------------------------4----------5----------0--------|
E |-----------------------------------------------------------------------------|

F#|--3-----3----1-----1----5-----5----0-----0--------------------------0--------|
B |------0---0------0---0------0---0------0---0--3-----3----7-----7----------0--|
F#|----0----------0----------0----------0------------0---0------0---0------0---0|
D |--4----------2----------5----------0------------0----------0----------0------|
G |----------------------------------------------4----------7----------0--------|
E |-----------------------------------------------------------------------------|

F#|----------------------------------------------------------------------------|
B |--3-----3----2-----2-----------0--3-----3----2-----2---/7-----7----0-----0--|
F#|------0---0------0---0--1-------------0---0------0---0-/----0---0------0---0|
D |----0----------0------------0-------0----------0-------/--0----------0------|
G |--4----------2------------0----0--4----------2---------/7----------0--------|
E |------------------------0---------------------------------------------------|

F#|--1-----1----5-----5----7-----7----8-----8--12-----12----8-----8-----|
B |------0---0------0---0------0---0------0---------0----0------0---0---|
F#|----0----------0----------0----------0---------0-----------0---------|
D |--2----------5----------7----------9--------12-----------9-----------|
G |---------------------------------------------------------------------|
E |---------------------------------------------------------------------|

F#|--5-----5----5-----5----5-----5----0-----0----1----0----------------|
B |------0---0------0---0------0---0------0---0----0----0--3-----3-----|
F#|----0----------0----------0----------0----------------------0---0---|
D |--5----------5----------5----------0----------2----0------0---------|
G |--------------------------------------------------------4-----------|
E |--------------------------------------------------------------------|

F#|--------------------------------------------------------------------|
B |--2-----2---/7-----7----0-----0----0-----0--------------------------|
F#|------0---0-/----0---0------0---0------0---0------------------------|
D |----0-------/--0----------0----------0------------------------------|
G |--2---------/7----------0----------0--------------------------------|
E |--------------------------------------------------------------------|

F#|--1-----1----5-----5----7-----7----8-----8--12-----12----8-----8-----|
B |------0---0------0---0------0---0------0---------0----0------0---0---|
F#|----0----------0----------0----------0---------0-----------0---------|
D |--2----------5----------7----------9--------12-----------9-----------|
G |---------------------------------------------------------------------|
E |---------------------------------------------------------------------|

 [RIFF] [hamonics in ( )]
F#|-(12)--------(7)------(5)------(7)------(12)--------(7)------(5)------(7)--|
B |----(12)-------(7)------(5)------(7)-------(12)-------(7)------(5)----(7)--|
F#|-------(12)------(7)------(5)------(7)--------(12)------(7)------(5)--(7)--|
D |-------(12)------(7)------(5)------(7)--------(12)------(7)------(5)--(7)--|
G |----(12)-------(7)------(5)------(7)-------(12)-------(7)------(5)----(7)--|
E |-(12)--------(7)------(5)------(7)------(12)--------(7)------(5)------(7)--|

F#|--3--5--0~---x--3--5--0--1--0------x--|
B |-------------x-----------------3~--x--|
F#|-------------x---------------------x--|
D |--4--5--0~---x--4--5--0--2--0------x--|
G |-------------x-----------------4~--x--|
E |-------------x---------------------x--|

                                                 [repeat this last section]
F#|--3--5--7--5--3--1--0---------------------x-------------------0------------|
B |-----------------------3--2--5--3--2--0~--x--3~--2~-----0--3-----2~/7--0~--|
F#|------------------------------------------x----------1---------------------|
D |--4--5--7--5--4--2--0---------------------x-------------------0------------|
G |-----------------------4--2--5--4--2--0~--x--4~--2~-----0--4-----2~/7--0~--|
E |------------------------------------------x----------0---------------------|

 [OUTRO]
F#|--5-----5----0-----0----1----0----------------------------------------------|
B |------0---0------0---0----0----0--3-----3----2-----2---/7-----7----0-----0--|
F#|----0----------0----------------------0---0------0---0-/----0---0------0---0|
D |--5----------0----------2----0------0----------0-------/--0----------0------|
G |----------------------------------4----------2---------/7----------0--------|
E |----------------------------------------------------------------------------|

F#|--3-----3----1-----1----5-----5----0-----0--------------------------0--------|
B |------0---0------0---0------0---0------0---0--3-----3----7-----7----------0--|
F#|----0----------0----------0----------0------------0---0------0---0------0---0|
D |--4----------2----------5----------0------------0----------0----------0------|
G |----------------------------------------------4----------7----------0--------|
E |-----------------------------------------------------------------------------|

F#|----------------------------------------------------------------------------|
B |--3-----3----2-----2-----------0--3-----3----2-----2---/7-----7----0-----0--|
F#|------0---0------0---0--1-------------0---0------0---0-/----0---0------0---0|
D |----0----------0------------0-------0----------0-------/--0----------0------|
G |--4----------2------------0----0--4----------2---------/7----------0--------|
E |------------------------0---------------------------------------------------|

F#|--1-----1----5-----5----7-----7----8-----8--12-----12----8-----8-----|
B |------0---0------0---0------0---0------0---------0----0------0---0---|
F#|----0----------0----------0----------0---------0-----------0---------|
D |--2----------5----------7----------9--------12-----------9-----------|
G |---------------------------------------------------------------------|
E |---------------------------------------------------------------------|

F#|--5-----5----5-----5----5-----5----0-----0----1----0----------------|
B |------0---0------0---0------0---0------0---0----0----0--3-----3-----|
F#|----0----------0----------0----------0----------------------0---0---|
D |--5----------5----------5----------0----------2----0------0---------|
G |--------------------------------------------------------4-----------|
E |--------------------------------------------------------------------|

F#|--------------------------------------------------------------------|
B |--2-----2---/7-----7----0-----0----0-----0--------------------------|
F#|------0---0-/----0---0------0---0------0---0------------------------|
D |----0-------/--0----------0----------0------------------------------|
G |--2---------/7----------0----------0--------------------------------|
E |--------------------------------------------------------------------|

                                        [repeat this section around 12x]
F#|----------------------------------------------0----------0------------|
B |--3-----3----2-----2----3-----3----2-----2----------0----------0------|
F#|------0---0------0---0------0---0------0---0------0---0------0---0----|
D |----0----------0----------0----------0----------0----------0----------|
G |--4----------3----------2----------1----------0----------0------------|
E |----------------------------------------------------------------------|

F#|--------------------------------|
B |--3-----2-----3-----2-----0~----|
F#|-----0-----0-----0-----0--0~----|
D |--------------------------------|
G |--4-----3-----2-----1-----0~----|
E |--------------------------------|

*That should be about right. Try to figure out the way she picks the chords.
 And remember that it's in E-G-D-F#-B-F#

************************************

| x    Dead note
| ~    Vibrato
| /    Slide up
| (n)  Ghost note

************************************
 
 
Kaki King - Doing The Wrong Thing :: indexed at Ultimate Guitar.
Doing The Wrong Thing tabs @ 911Tabs

About the artist behind Doing The Wrong Thing:

Kaki King (born August 24, 1979 as Katherine Elizabeth King) is an American guitar player and singer-songwriter from Atlanta, Georgia.

Indexed at Wikipedia.

Show us your talent, perform Doing The Wrong Thing!

Here you can post a video or audio performance. Tell me more ...
Where can we find your performance? Tell me more ...
Your comment:
Please, log in to post your performance.