Artists by letter: A B C D E F G H I J K L M N O P Q R S T U V W X Y Z 0-9

 
Bari Improv
*This Song Is Not 100% Correct But I Tried To Do My Best In Tabbing It Out*
----------------------------------------------------------------------------
Tuning: (Originally Played): DADGCc
        (How You Can Play It): DADGCe
----------------------------------------------------------------------------
-Strumming Is Not Required In This Song. You must hit
(Not Too Hardly)On The FRETBORAD Or The BRIDGE.
----------------------------------------------------------------------------
Abbreviations: Hd=Hold
               p=Pulloff
               h=Harmonic
               v=Vibrate (Wave)
               b=Bend (Half)
               hm-HammerOn
               lr=Let Ring
----------------------------------------------------------------------------
NOTE:Play With An Acosutic Guitar Connected To An Amp With ECHO Effects!
     I Would Suggest That You Should Listen To This Song To Get The Rythym.
----------------------------------------------------------------------------

Introduction:

e|----------------------------------------------|
C|-----------------------0h12p0-----------------|
G|----------------------------------------------|
D|---0lr-----0---0-0lr--------------------------|
A|---0lr-----0---0-0lr--------------------------|
D|---0lr-----0---0-0lr--------------------------|

Main Riff:
e|----------------------------------------------|
C|------0----0-------------------0----0---------|
G|------0----0-------------------0----0---------|
D|---0--0-0--0-0-0--0---0-0---0--0-0--0-0-0--0--|
A|---0--0-0--0-0-0--0---0-0---0--0-0--0-0-0--0--|
D|---0--0-0--0-0-0--0---0-0---0--0-0--0-0-0--0--|

e|-----------------------------------------------|
C|------0----0-------------------0----0----------|
G|------0----0-------------------0----0----------|
D|---0--0-0--0-0-0--0---0-0---0--0-0--0-0-0--0lr-|
A|---0--0-0--0-0-0--0---0-0---0--0-0--0-0-0--0lr-|
D|---0--0-0--0-0-0--0---0-0---0--0-0--0-0-0--0lr-|

e|----------------------------------------------|
C|------------15-12v--------0----0--------------|
G|-----12-14----------------0----0--------------|
D|--12-------------------0--0-0--0-0-0--0-------|
A|-----------------------0--0-0--0-0-0--0-------|
D|---------------------0-0--0-0--0-0-0--0-------|

e|----------------------------------------------|
C|------------15-12v--------0----0--------------|
G|-----12-14----------------0----0--------------|
D|--12-------------------0--0-0--0-0-0--0-------|
A|-----------------------0--0-0--0-0-0--0-------|
D|---------------------0-0--0-0--0-0-0--0-------|

e|----------------------------------------------|
C|----------------------------------------------|
G|----------------------------------9-----------|
D|--------7-------7--------9--------------------|
A|--3-8-3---3-8-3---5-10-5---5-10-5-------------|
D|--3---3---3---3---5----5---5----5-------------|

e|----------------------------------------------|
C|------0----0-------------------0----0---------|
G|------0----0-------------------0----0---------|
D|---0--0-0--0-0-0--0---0-0---0--0-0--0-0-0--0--|
A|---0--0-0--0-0-0--0---0-0---0--0-0--0-0-0--0--|
D|---0--0-0--0-0-0--0---0-0---0--0-0--0-0-0--0--|

e|----------------------------------------------|
C|----------------------------------------------|
G|----------------------------------9-----------|
D|--------7-------7--------9--------------------|
A|--3-8-3---3-8-3---5-10-5---5-10-5-------------|
D|--3---3---3---3---5----5---5----5-------------|

e|-----------------------------------------------|
C|------0----0-------------------0----0----------|
G|------0----0-------------------0----0----------|
D|---0--0-0--0-0-0--0---0-0---0--0-0--0-0-0--0lr-|
A|---0--0-0--0-0-0--0---0-0---0--0-0--0-0-0--0lr-|
D|---0--0-0--0-0-0--0---0-0---0--0-0--0-0-0--0lr-|

e|----------------------------------------------|
C|----------------------------------------------|
G|----------------------------------------------|
D|--Hd3-7p-7p-7p-7p-7p-7p-7p-7p-Hd5-9p-9p-9p-9p-|
A|----------------------------------------------|
D|----------------------------------------------|

e|------------|
C|------------|
G|--------9---|
D|----9-------|
A|--5---5-----|
D|------------|

e|----------------------------------------------|
C|------0----0-------------------0----0---------|
G|------0----0-------------------0----0---------|
D|---0--0-0--0-0-0--0---0-0---0--0-0--0-0-0--0--|
A|---0--0-0--0-0-0--0---0-0---0--0-0--0-0-0--0--|
D|---0--0-0--0-0-0--0---0-0---0--0-0--0-0-0--0--|

e|-----------------------------------------------|
C|------0----0-------------------0----0----------|
G|------0----0-------------------0----0----------|
D|---0--0-0--0-0-0--0---0-0---0--0-0--0-0-0--0lr-|
A|---0--0-0--0-0-0--0---0-0---0--0-0--0-0-0--0lr-|
D|---0--0-0--0-0-0--0---0-0---0--0-0--0-0-0--0lr-|

e|----------------------------------------------|
C|--5-hm7---------------------------------------|
G|--------6-hm7---------------------------------|
D|--------------7-hm9--------------0lr----------|
A|--------------------7-hm9--------0lr----------|
D|--------------------------7-hm9--0lr----------|

e|----------------------------------------------|
C|--5-hm7---------------------------------------|
G|--------6-hm7---------------------------------|
D|--------------7-hm9--------------0--0lr-------|
A|--------------------7-hm9--------0--0lr-------|
D|--------------------------7-hm9--0--0lr-------|

*This Is It...Hope You Liked It :)
*You Can Contact Me On [email protected]
 
 
Kaki King - Bari Improv :: indexed at Ultimate Guitar.
Bari Improv tabs @ 911Tabs

About the artist behind Bari Improv:

Kaki King (born August 24, 1979 as Katherine Elizabeth King) is an American guitar player and singer-songwriter from Atlanta, Georgia.

Indexed at Wikipedia.

Show us your talent, perform Bari Improv!

Here you can post a video or audio performance. Tell me more ...
Where can we find your performance? Tell me more ...
Your comment:
Please, log in to post your performance.