Artists by letter: A B C D E F G H I J K L M N O P Q R S T U V W X Y Z 0-9

 
Bari Improv
I figured this out, but was too lazy to tab it out until now.  So, here it is!

Tuning -

How they play it - (low pitch to high pitch)  DADGCC

How you can play it - (low pitch to high pitch)   DADGCe

Either one realy works, you don't really hit the highest string too much.

You don't strum at all in this song, its all by hitting the guitar either on the fret or 
the bridge.

Theres tons of delay on this.

C||---------|------------------|---------------|---------------|
C||--0------|-(0)--------------|-0--0-0---0-0--|-0--0-0---0-0--|
G||--0------|-(0)--------------|-0--0-0---0-0--|-0--0-0---0-0--|
D||--0------|-(0)-------|-0--0-0---0-0--|-0--0-0---0-0--|
A||--0------|-(0)-------|-0--0-0---0-0--|-0--0-0---0-0--|
D||--0------|-(0)-------|-0--0-0---0-0--|-0--0-0---0-0--|

The harmonics here are done by tapping the guitar 12 frets up on the neck while holding 
frets shown here.

C|-----------------|
C|--------------|
G|--------------|  This is the main riff of this song.  With these addons
D|--------------|  in between these riffs.
A|--------------|
D|-----------------|

Input 1:

C|------------------------------------------------|
C|------------------------------------------------|
G|------------------------------------------------|
D|---7p0---7----7p0---7----9p0---9----9p0---9-----|
A|-3-----3----3-----3----5-----5----5-----5---p0--|
D|-3-----3----3-----3----5-----5----5-----5---p0--|

Input 2:

C|-------------------------|---------------------------------------|
C|-------------------------|------------------------------------|
G|-------------------------|-9p0-9p0-9p0-9p0-9p0----------------|
D|-7p0-7p0-7p0-7p0-7p0-7p0-|-9p0-9p0-9p0-9p0-9p0-------------|
A|-------------------------|---------------------------------------|
D|-------------------------|---------------------------------------|
 
 
Kaki King - Bari Improv :: indexed at Ultimate Guitar.
Bari Improv tabs @ 911Tabs

About the artist behind Bari Improv:

Kaki King (born August 24, 1979 as Katherine Elizabeth King) is an American guitar player and singer-songwriter from Atlanta, Georgia.

Indexed at Wikipedia.

Show us your talent, perform Bari Improv!

Here you can post a video or audio performance. Tell me more ...
Where can we find your performance? Tell me more ...
Your comment:
Please, log in to post your performance.