Artists by letter: A B C D E F G H I J K L M N O P Q R S T U V W X Y Z 0-9

 

It Might Be You
Song title:It Might Be You
Artist:Kai
Tabbed by:Stello
Email:[email protected]

*Hi peepz!this tab is dedicated to all you guys who love this song,and even to those who don't...he3x
Special thankz to my one and only master "DenJo",thank you master sa guitara and the 
session with you!
And lastly Kayla,without you as my inspiration,i just can't make it!
Hope you'll sing it for me,ha!?..;p
For questions and comments email me [email protected]
And add me also peepz sa friendster!*
Here it is,enjoy!;p

Intro:
Guitar 1
E[--3-3---------|---------------|---------------|-------3-2h3-------]
B[--3---3-----3-|-------3-------|-------3-------|-----3-------3-----]
G[--0-------0---|-----2---2---2-|-----5---5---5-|---2-----------2---]3x
D[--0-----0-----|---4-------4---|---5-------5---|-0---------------0-]
A[--2-----------|-2-------------|-3-------------|-------------------]
E[--3-----------|---------------|---------------|-------------------]

Guitar 2 enters at 2nd round:
E[--------------|--------------------|-----7/10-12-|-8-8p7-8p7-5h7-5-3h5-3-]
B[--------------|-------8/10-8-7h8---|-7-8---------|-----------------------]
G[--------4h5/7-|-7-7/9------------7-|-------------|-----------------------]
D[----5h7-------|--------------------|-------------|-----------------------]
A[--5h7---------|--------------------|-------------|-----------------------]
E[--------------|--------------------|-------------|-----------------------]

E[----------------|-------------|-------------------3-|
B[--3-----3-3-----|-----3-3-----|-----3-3"5p0-------3-|
G[--0-----------0-|-----------0-|-------------4-2p0-0-|
D[----4-5-----4---|-4-5-----4---|-4-5-----------------|
A[----------------|-------------|---------------------|
E[----------------|-------------|---------------------|

Verse 1
Guitar 1

E[--3-3---------|---------------|---------------|-------3-2h3-------]
B[--3---3-----3-|-------3-------|-------3-------|-----3-------3-----]
G[--0-------0---|-----2---2---2-|-----5---5---5-|---2-----------2---]
D[--0-----0-----|---4-------4---|---5-------5---|-0---------------0-]
A[--2-----------|-2-------------|-3-------------|-------------------]
E[--3-----------|---------------|---------------|-------------------]
    G		      Bm7               C		        D
    Time	 I’ve been passing time watching trains go by…

E[--3-3---------|---------------|---------------]
B[--3---3-----3-|-------3-------|-------3-------]
G[--0-------0---|-----2---2---2-|-----5---5---5-]
D[--0-----0-----|---4-------4---|---5-------5---]
A[--2-----------|-2-------------|-3-------------]
E[--3-----------|---------------|---------------]
    G                    Bm7	               C
    All of my life Lying on the sands watching seabirds fly…

E[--------------|--------------]
B[--------5-----|-------5------]
G[------4---4---|-----4------4-]
D[----5-------5-|---6------6---]
A[--4-----------|-4------------]
E[--------------|--------------]
	         C#m7
            Wishing there would be

E[----------------|--------------|---0-----]
B[--------3-------|-------3------|-1"----1-]
G[------2---2-----|-----5---5----|-2---2"--]
D[----4-------4---|---5-------5--|---------]
A[--2-------------|-3------------|-0-------]
E[----------------|--------------|---------]
    Bm7		      C	       Am
    Someone   waiting home for me

Chorus:
E[------|----------------------0-]
B[----3-|-1p0-1p0--1h3-----------]
G[----0-|-0---0----------2---2---]
D[------|--------------2-2-------]
A[--2---|-3----------------------]
E[------|------------------------]
    C9          C 		       Am
    Something’s telling me it might be you

E[------|----------------------0-3---3-]
B[----1-|-1p0-1p0--1h3-------------3-3-]
G[----2-|-0---0----------2---2-------0-]
D[------|--------------2-2-------------]
A[--0---|-3----------------------------]
E[------|------------------------------]
    Am	     C                      Am
    Yeah its telling me it might be you

E[---3---------]
B[-----3-----3-]
G[---------0---]
D[-------0-----]
A[-------------]
E[-------------]
    G
    All of my life

Verse 2
E[---------------|---------------|-------3-2h3-------]
B[-------3-------|-------3-------|-----3-------3-----]
G[-----2---2---2-|-----5---5---5-|---2-----------2---]
D[---4-------4---|---5-------5---|-0---------------0-]
A[-2-------------|-3-------------|-------------------]
E[---------------|---------------|-------------------]
    Bm7                    C			D
    Looking back as lovers go walking past...

E[--3-3---------|---------------|---------------]
B[--3---3-----3-|-------3-------|-------3-------]
G[--0-------0---|-----2---2---2-|-----5---5---5-]
D[--0-----0-----|---4-------4---|---5-------5---]
A[--2-----------|-2-------------|-3-------------]
E[--3-----------|---------------|---------------]
    G			     Bm7	      C
    All of my life Wondering how they met and what makes it last…

E[--------------|--------------]
B[--------5-----|-------5------]
G[------4---4---|-----4------4-]
D[----5-------5-|---6------6---]
A[--4-----------|-4------------]
E[--------------|--------------]
	        C#m7
          If I found the place

E[----------------|--------------|---0-----]
B[--------3-------|-------3------|-1"----1-]
G[------2---2-----|-----5---5----|-2---2"--]
D[----4-------4---|---5-------5--|---------]
A[--2-------------|-3------------|-0-------]
E[----------------|--------------|---------]
    Bm7		 C    	           Am
    Would I recognize the  face

E[------|----------------------0-]
B[----3-|-1p0-1p0--1h3-----------]
G[----0-|-0---0----------2---2---]
D[------|--------------2-2-------]
A[--2---|-3----------------------]
E[------|------------------------]
    C9          C 		       Am
    Something’s telling me it might be you

E[------|----------------------0-3---3-]
B[----1-|-1p0-1p0--1h3-------------3-3-]
G[----2-|-0---0----------2---2-------0-]
D[------|--------------2-2-------------]
A[--0---|-3----------------------------]
E[------|------------------------------]
    Am
    Yeah its telling me it might be you

Bridge
E[--3----------------------]
B[--3------3h5p7-5---4-----]
G[--0--------------------3-]
D[--0----4-------------5---]
A[--2--2-----------3-------]
E[--3----------------------]
       Bm7
       So many quiet walks to take

E[---------------]
B[--------5----3-]
G[------4---4--2-]
D[----6--------4-]
A[--4----------2-]
E[---------------]
    C#m7              Bm7
    So many dreams to wake

E[------------------]
B[------------3---1-]
G[----------5-----2-]
D[----4---5---------]
A[--2---3-------3---]
E[------------------]
        C
        And we've so much love to make

E[------------------------]
B[--------3h5p7-5---4-----]
G[----------------------3-]
D[------4-------------5---]
A[----2-----------3-------]
E[------------------------]
      Bm7
      I think were gonna need some time

E[----------------]
B[----------5---3-]
G[------4-------0-]
D[----6---6-------]
A[--4---------2---]
E[----------------]
    C#m7              G
    Maybe all we need is time...

E[------|----------------------0-3---3-]
B[----1-|-1p0-1p0--1h3-------------3-3-]
G[----2-|-0---0----------2---2-------0-]
D[------|--------------2-2-------------]
A[--0---|-3----------------------------]
E[------|------------------------------]
    Am	    C                      Am
    And its telling me it might be you

E[---3---------]
B[-----3-----3-]
G[---------0---]
D[-------0-----]
A[-------------]
E[-------------]
    G
    All of my life...

Back Chorus then
Outro:

Guitar 1
E[--3-3---------|---------------|---------------|-------3-2h3-------]
B[--3---3-----3-|-------3-------|-------3-------|-----3-------3-----]
G[--0-------0---|-----2---2---2-|-----5---5---5-|---2-----------2---]3x
D[--0-----0-----|---4-------4---|---5-------5---|-0---------------0-]
A[--2-----------|-2-------------|-3-------------|-------------------]
E[--3-----------|---------------|---------------|-------------------]
    G            Bm7          C           D
    Maybe its you...maybe its youIve been waiting for all of my life

Guitar 2
E[----------------|-------------|-------------------3-|
B[--3-----3-3-----|-----3-3-----|-----3-3"5p0-------3-|
G[--0-----------0-|-----------0-|-------------4-2p0-0-|3x
D[----4-5-----4---|-4-5-----4---|-4-5-----------------|
A[----------------|-------------|---------------------|
E[----------------|-------------|---------------------|
 
 
Kai - It Might Be You :: indexed at Ultimate Guitar.
It Might Be You tabs @ 911Tabs

About the artist behind It Might Be You:

Risshō Kōsei Kai (立正佼成会; until June 1960, 大日本立正交成会: Dai-Nippon Risshō Kōsei Kai) is a Japanese Buddhist lay movement founded in 1938 and an offshoot of the Nichiren-Buddhist Reiyūkai Rissho Kosei-kai was established on March 5, 1938, by Nikkyo Niwano and Myoko Naganuma.

Indexed at Wikipedia.

Show us your talent, perform It Might Be You!

Here you can post a video or audio performance. Tell me more ...
Where can we find your performance? Tell me more ...
Your comment:
Please, log in to post your performance.