Artists by letter: A B C D E F G H I J K L M N O P Q R S T U V W X Y Z 0-9

 
Doomsday Machine
Couldn’t figure out the distortion part in the 1st solo so it would be great if someone writes it in.  

[Intro]

D ||-------------------------------------------------------------|
A ||-------------------------------------------------------------|
F ||------------------------2b-----------------------------------|
C ||-2h4-4-4-4----------2h4----4-2-4---------2h4r2---------------|
G ||------------2--------------------2---------------------------|
D ||--------------5-4-2----------------5-4-2---------------------|


[Verse]

D ||----------------------------------------------------------------|
A ||----------------------------------------------------------------|
F ||-9\6-----6-----6-----6-4-4/6-----6-----6-----6/9-9\6------------|
C ||-7\4-4-4-4-4-4-4-4-4-4-2-2/4-4-4-4-4-4-4-4-4-4/7-7\4------------|
G ||----------------------------------------------------------------|
D ||----------------------------------------------------------------|

    1st ending     2nd ending
D ||-------------|--7-5---5----------------|
A ||-------------|------7---5----7-7h10----|
F ||-6-4---------|------------6h9----------|
C ||-----6-4-----|-------------------------|
G ||---------4---|-------------------------|
D ||-------------|-------------------------|


[Chorus]

D ||-------------------------------------------------------|
A ||-------------------------------------------------------|
F ||-6-6/9-9\4-4---------------------2b--------------------|
C ||-4-4/7-7\2-2-------------------2----4-2-4--------------|
G ||-------------0-0-0-2-2-2-4-2-4-------------------------|
D ||-------------------------------------------------------|

                           2nd ending
D ||---------------------|-------------------------|
A ||---------------------|---------------9---------|
F ||-6-6\4-4/9-9---------|-------------7-7---------|
C ||-4-4\2-2/7-7-6-4-----|-------------5-----------|
G ||-------------4-2-7-6-|-7~-7-7-8-9~-------------|
D ||-----------------5-4-|-5~-5-5-6-7~-------------|


   [Begining 1st solo]

D ||-----------------------------------------------------------------|
A ||----10-12b-10-10-10-10\7-5-7-5-7/10-12b-12b-12b-10h12p10---------|
F ||-11------------------------------------------------------11-9-11-|
C ||-----------------------------------------------------------------|
G ||-----------------------------------------------------------------|
D ||-----------------------------------------------------------------|
         After this, the distortion part follows.

 
   [Verse ending variation at ~3:17]

D ||-----------------|
A ||-----------------|
F ||-6-4-------------|
C ||-----6-4---7-4---|
G ||---------4-------|
D ||-----------------|


   [2nd solo]

D ||------------------------------------------------------|
A ||-12p10----10------------10---12p10--10---12-12-12-12b-|
F ||-------11----11-----9h11--11------11"9h11-------------|
C ||----------------9h11----------------------------------|
G ||------------------------------------------------------|
D ||------------------------------------------------------|

D ||-------------------------------------------------------|
A ||-12p10--10----------10"10h12-12b-12p10h12p10h12p10h12--|
F ||------11--11----9h11--11-------------------------------|
C ||------------9h11---------------------------------------|
G ||-------------------------------------------------------|
D ||-------------------------------------------------------|

D ||------------------------------------------------------|
A ||-12p10--10----------10-------12p10--10---12-12-12-12b-|
F ||------11--11----9h11--11-9h11-----11"9h11-------------|
C ||------------9h11--------------------------------------|
G ||------------------------------------------------------|
D ||------------------------------------------------------|

D ||---------------------------------------------------------------|
A ||-12p10--10--------------7h10p7-----12bp10-10----------------10-|
F ||------11--11------9h11p9------11-9-----------11p9-11p9-11-11---|
C ||------------9h11p9---------------------------------------------|
G ||---------------------------------------------------------------|
D ||---------------------------------------------------------------|

D ||----------------12-12brp9--9-----------------------------------|
A ||-9h12p9-12-9-14----------12-12-10-(10)-(10)p7-------------10---|
F ||----------------------------------------------11-9-11-9-11--11-|
C ||---------------------------------------------------------------|
G ||---------------------------------------------------------------|
D ||---------------------------------------------------------------|

D ||---------------------------------------------------------|
A ||-12b-12b-12b-10-7h10p7-------10--------------10--10-12b~-|
F ||-----------------------11-9----9--9-11-9-11-9--11--------|
C ||----------------------------9----9-----------------------|
G ||---------------------------------------------------------|
D ||---------------------------------------------------------|

   [After the drums-roll)
D ||-----------------|
A ||-----------------|
F ||-----------------|
C ||-4-2-7---7-6-----|
G ||-------7---------|
D ||-----------------|

That’s it!!! Enjoy and rock on bitches!!! \m/



************************************

| (n)  Ghost note
| h    Hammer-on
| p    Pull-off
| r    Release
| b    Bend
| /    Slide up
| \    Slide down
| ~    Vibrato

************************************
 
 
Kadavar - Doomsday Machine :: indexed at Ultimate Guitar.
Doomsday Machine tabs @ 911Tabs
People who played Kadavar - Doomsday Machine also played these songs by Kadavar:
Goddess Of Dawn Tab, The Old Man Tab, Goddess Of Dawn, The Old Man, Doomsday Machine Tab

Quick tip, so you can enjoy Doomsday Machine even more:

Try out the AutoScroller option ... It scrolls the page for you, so you can totally focus on nailing that solo. You can choose among different speeds using your mouse or your keyboard (keys 0, 1, 2 and 3).

Show us your talent, perform Doomsday Machine!

Here you can post a video or audio performance. Tell me more ...
Where can we find your performance? Tell me more ...
Your comment:
Please, log in to post your performance.