Artists by letter: A B C D E F G H I J K L M N O P Q R S T U V W X Y Z 0-9

 
Uncle Sam
Capo can be open, on 1st, or on the 2nd fret.


[Intro]

       Bm           G      D           A 
e|-------------------------0h2p0---------------------------------------------|
B|------2h3p2-------3--s---------3-----2--s----------------------------------|
G|------------4-----0------------------2-------------------------------------|
D|-------------------------0-------------------------------------------------|
A|-------------------------------------0-------------------------------------|
E|------2-----------3--------------------------------------------------------|

       Bm          G       D           A 
e|-------------------------0h2p0---------------------------------------------|
B|------2h3p2-------3--s---------3-----2--s----------------------------------|
G|------------4-----0------------------2-------------------------------------|
D|-------------------------0-------------------------------------------------|
A|-------------------------------------0-------------------------------------|
E|------2-----------3--------------------------------------------------------|


[Verse]

       Bm          G       D           A 
e|-------------------------0h2p0---------------------------------------------|
B|------2h3p2-------3--s----------3----2---s---------------------------------|
G|------------4-----0------------------2-------------------------------------|
D|-------------------------0-------------------------------------------------|
A|-------------------------------------0-------------------------------------|
E|------2-----------3--------------------------------------------------------|

       Bm           G      D           A 
e|-------------------------0h2p0---------------------------------------------|
B|------2h3p2-------3--s--------3------2----s--------------------------------|
G|------------4-----0------------------2-------------------------------------|
D|-------------------------0-------------------------------------------------|
A|-------------------------------------0-------------------------------------|
E|------2-----------3--------------------------------------------------------|

It all started three summers ago
We went down to LA to help run the show
I walked in saw you wearing OC
does this girl go to school with me?

I didn't know you and you didn't know me
But we were friends by the end of the week
We hung out during school and In summer
I didn't want to be friends I wanted more


[Chorus]

         Bm  G       D       A 
You have no idea how lucky I am
   Bm     G            D         A
To be the one that you call your man
    Bm  G        D          A
To love you, yes that's the plan
  Bm       G         D     A 
I want you more than Uncle Sam 


[Verse]

Bm   G    D         A
Finally I asked you out
    Bm       G       D     A
And you said yes without a doubt
      Bm     G           D       A
These last 4 months I've been so blessed
           Bm     G          D        A
Cause I've got to spend them with the best


[Chorus]

         Bm G        D       A 
You have no idea how lucky I am
   Bm     G            D         A
To be the one that you call your man
    Bm  G        D          A
To love you, yes that's the plan
  Bm       G         D     A 
I want you more than Uncle Sam 


[Bridge]

       Bm          G       D          A 
e|--------2------------------1----------------------------------------------|
B|------3----------3--s----3----------2--s----------------------------------|
G|-----------------0------------------2-------------------------------------|
D|-------------------------0------------------------------------------------|
A|------------------------------------0-------------------------------------|
E|------2----------3--------------------------------------------------------|


       Bm          G       D          A 
e|--------2------------------1----------------------------------------------|
B|------3----------3--s----3----------2--s----------------------------------|
G|-----------------0------------------2-------------------------------------|
D|-------------------------0------------------------------------------------|
A|------------------------------------0-------------------------------------|
E|------2----------3--------------------------------------------------------|

When thing are too, too good to be true
They usually are but not with you
You're beautiful and you're way out of my league
But you still choose to go out with me

When thing are too, too good to be true
They usually are but not with you
You're beautiful and you're way out of my league
But you still choose to go out with me


[Chorus]

*all single strums

         Bm Gb       D       A 
You have no idea how lucky I am
   Bm     G            D         A
To be the one that you call your man
    Bm  G        D          A
To love you, yes that's the plan
  Bm       G         D     A 
I want you more than Uncle Sam



************************************

| h  Hammer-on
| p  Pull-off
| s  slide

************************************
 
 
Jackson wise - Uncle Sam :: indexed at Ultimate Guitar.
Uncle Sam tabs @ 911Tabs

Quick tip, so you can enjoy Uncle Sam even more:

If you don't really know how to deal with "Absus4" chord and his equally confusing brothers, just put the mouse cursor over them and you will be shown a helpful chord diagram.

Show us your talent, perform Uncle Sam!

Here you can post a video or audio performance. Tell me more ...
Where can we find your performance? Tell me more ...
Your comment:
Please, log in to post your performance.