Artists by letter: A B C D E F G H I J K L M N O P Q R S T U V W X Y Z 0-9

 
Evil
Interpol - Evil

I was not happy with the existing tabs for this song.
So I tabbed one by myself. We play it this way in our
band and it sounds great. Have fun!

Tabbed by: swiz2000

----------------------------------------------------------
4 x Intro Bass
6 x Intro Bass/Drums
----------------------------------------------------------

Verse 1:                         Last Time:
Guitar 1 (x3)                    Guitar 1

e ----------------------------| |---------------------------------|
b ----------------------------| |---------------------------------|
g --10---------------7-7-7-7--| |--10-------------7-7-7-7-7-7-10--|
d --10---8-8-8-8-7---7-7-7-7--| |--10--8-8-8-8-7--7-7-7-7-7-7-10--|
a ---8---8-8-8-8-7---5-5-5-5--| |---8--8-8-8-8-7--5-5-5-5-5-5--8--|
E -------6-6-6-6-5------------| |------6-6-6-6-5------------------|

Guitar 2 (x3)

e ----------------------------|
b ----------------------------|
g --------------------10--10--|
d --------------------10--10--|
a ----------------------------|
E ----------------------------|

----------------------------------------------------------
1 x Bass
----------------------------------------------------------

Intro into chorus 1:
Guitar 2
e -----------------------------------|
b -----------------------------------|
g ---12-12-10-10-10-10-10------------|
d ---12-12-10-10-10-10-10------------|
a -----------------------------------|
E -----------------------------------|

----------------------------------------------------------

Chorus 1:
Guitar 1

e -------------------------------------------------------|
b -------------------------------------------------------|
g ---10------7-------------------------------------------|
d ---10------7--------8-------7--------10-------8--------|
a ----8------5--------8-------7--------10-------8--------|
E --------------------6-------5---------8-------6--------|

Guitar 2

e -------------------------------------------------------|
b -------------------------------------------------------|
g ---10------7-------15------14--------------------------|
d ----x------x--------x-------x--------10-------8--------|
a ----8------5-------13------12--------10-------8--------|
E --------------------------------------8-------6--------|
 
----------------------------------------------------------
2 x Bass
----------------------------------------------------------

Guitar 1 (x4)
e -------------------------------------------------------|
b ---10-10-10-10-10-10-10-10-10-10-10-10-10-10-10-10-----|
g ---10-10-10-10-10-10-10-10--9--9--9--9--7--7--7--7-----|
d -------------------------------------------------------|
a -------------------------------------------------------|
E -------------------------------------------------------|

Guitar 2 (x4)

e -------------------------------------------------------|
b ------10----10----10----10----10----10----10----10-----|
g ---10----10----10----10-----9-----9-----7-----7--------|
d -------------------------------------------------------|
a -------------------------------------------------------|
E -------------------------------------------------------|

----------------------------------------------------------

Verse 2:                         Last Time:
Guitar 1 (x3)                    Guitar 1

e ----------------------------| |---------------------------------|
b ----------------------------| |---------------------------------|
g --10---------------7-7-7-7--| |--10-------------7-7-7-7-7-7-10--|
d --10---8-8-8-8-7---7-7-7-7--| |--10--8-8-8-8-7--7-7-7-7-7-7-10--|
a ---8---8-8-8-8-7---5-5-5-5--| |---8--8-8-8-8-7--5-5-5-5-5-5--8--|
E -------6-6-6-6-5------------| |------6-6-6-6-5------------------|

Guitar 2 (x3)

e ----------------------------|
b ----------------------------|
g --------------------10--10--|
d --------------------10--10--|
a ----------------------------|
E ----------------------------|

----------------------------------------------------------
1 x Bass
----------------------------------------------------------

Intro into chorus 1:
Guitar 2:
e -----------------------------------|
b -----------------------------------|
g ---12-12-10-10-10-10-10------------|
d ---12-12-10-10-10-10-10------------|
a -----------------------------------|
E -----------------------------------|

----------------------------------------------------------
 
Chorus 2: (x2)
Guitar 1

e -------------------------------------------------------|
b -------------------------------------------------------|
g ---10------7-------------------------------------------|
d ---10------7--------8-------7--------10-------8--------|
a ----8------5--------8-------7--------10-------8--------|
E --------------------6-------5---------8-------6--------|

Guitar 2

e -------------------------------------------------------|
b -------------------------------------------------------|
g ---10------7-------15------14--------------------------|
d ----x------x--------x-------x--------10-------8--------|
a ----8------5-------13------12--------10-------8--------|
E --------------------------------------8-------6--------|

----------------------------------------------------------

Guitar 1 (x4)
e -------------------------------------------------------|
b -------------------------------------------------------|
g ---10-------10-10-----------9--------7--7--------------|
d ---10-------10-10-----------7--------7--7--------------|
a -------------------------------------------------------|
e -------------------------------------------------------|

----------------------------------------------------------

Guitar 1 (x2)
e -------------------------------------------------------|
b ---10-10-10-10-10-10-10-10-10-10-10-10-10-10-10-10-----|
g ---10-10-10-10-10-10-10-10--9--9--9--9--7--7--7--7-----|
d -------------------------------------------------------|
a -------------------------------------------------------|
E -------------------------------------------------------|

Guitar 2 (x2)
e -------------------------------------------------------|
b ------10----10----10----10----10----10----10----10-----|
g ---10----10----10----10-----9-----9-----7-----7--------|
d -------------------------------------------------------|
a -------------------------------------------------------|
E -------------------------------------------------------|

----------------------------------------------------------
 
Guitar 1 (x2)
e -------------------------------------------------------|
b -------------------------------------------------------|
g ---10-------10-10-----------9--------7--7--------------|
d ---10-------10-10-----------7--------7--7--------------|
a -------------------------------------------------------|
E -------------------------------------------------------|

Guitar 2 (x2)
e -------------------------------------------------------|
b ---10-10-10-10-10-10-10-10-10-10-10-10-10-10-10-10-----|
g ---10-10-10-10-10-10-10-10--9--9--9--9--7--7--7--7-----|
d -------------------------------------------------------|
a -------------------------------------------------------|
E -------------------------------------------------------|

----------------------------------------------------------

Guitar 1 (x2)
e -------------------------------------------------------|
b -------------------------------------------------------|
g ---10-------10-10-----------9--------7--7--------------|
d ---10-------10-10-----------7--------7--7--------------|
a -------------------------------------------------------|
E -------------------------------------------------------|

Guitar 2 (x2)
e -------------------------------------------------------|
b -------------------------------------------------------|
g ---10-10-10-10-12-12-12-12-14-14-14-14-14-14-14-14-----|
d ----x--x--x--x--x--x--x--x--x--x--x--x--x--x--x--x-----|
a ----8--8--8--8-10-10-10-10-12-12-12-12-12-12-12-12-----|
E -------------------------------------------------------|

----------------------------------------------------------

Final Chorus: (x2)

Guitar 1

e -------------------------------------------------------|
b -------------------------------------------------------|
g ---10------7-------------------------------------------|
d ---10------7--------8-------7--------10-------8--------|
a ----8------5--------8-------7--------10-------8--------|
E --------------------6-------5---------8-------6--------|

Guitar 2

e -------------------------------------------------------|
b -------------------------------------------------------|
g ---10------7-------15------14--------------------------|
d ----x------x--------x-------x--------10-------8--------|
a ----8------5-------13------12--------10-------8--------|
E --------------------------------------8-------6--------|

----------------------------------------------------------
 
Finish: (x2)
Guitar 1+2

e -----------------------    e ---------------|
b -----------------------    b ---------------|
g -----------------------    g --10-----------|
d --10-----12------------    d --10-----------|
a --10-----12------------    a ---8-----------|
E ---8-----10------------    E ---------------|

----------------------------------------------------------

 
 
Interpol - Evil :: indexed at Ultimate Guitar.
Evil tabs @ 911Tabs

About the artist behind Evil:

Interpol is one of many bands associated with the New York indie music scene, being one of several groups that emerged out of the post-punk revival of the 2000s. The band's sound is generally a mix of bass throb and choppy, sparse guitar, with a snare heavy mix, drawing comparisons to post-punk bands such as Joy Division and The Chameleons.[1]

Indexed at Wikipedia.

Show us your talent, perform Evil!

Here you can post a video or audio performance. Tell me more ...
Where can we find your performance? Tell me more ...
Your comment:
Please, log in to post your performance.